Taking Back Sunday - This Photograph Is Proof Chords & Tabs

 

This Photograph Is Proof Chords & Tabs

Taking Back Sunday Chords & Tabs

Version: 3 Type: Tab 0 ratings
1 star 2 stars 3 stars 4 stars 5 stars
comments

This Photograph Is Proof Tab

   
INTRO
Guitar 1 (Finger picking)
E|-------------------------------------------------|
B|-7-7-7-5-5-5-7-7-7-5-5-5-2-2-2-3-3-3-2-2-2-3-3-3-|
G|-------------------------------------------------|
D|-------------------------------------------------|
A|-5-5-5-5-5-5-5-5-5-5-5-5\2-2-2-2-2-2-2-2-2-2-2-2-|1x
E|-------------------------------------------------|


Guitar 1 (Finger picking)
E|-------------------------------------------------|
B|-7-7-7-5-5-5-7-7-7-5-5-5-2-2-2-3-3-3-2-2-2-3-3-3-|
G|-------------------------------------------------|
D|-------------------------------------------------|
A|-5-5-5-5-5-5-5-5-5-5-5-5\2-2-2-2-2-2-2-2-2-2-2-2-|1x
E|-------------------------------------------------|
 |
 |
Guitar 2
E|-------------------------------------------------|
B|-------------------------------------------------|
G|-------2-2-2------2-2----------------------------|
D|-0-0--------0-0-------0-------4-4-2-4-4---4--2-0-|
A|------------------------2-2----------------------|1x
E|-------------------------------------------------|
  pm .   . . .. .   . . . . .   . . . . .   .  . .


VERSE
Guitar 1 (Finger picking)
E|-------------------------------------------------|
B|-7-7-7-5-5-5-7-7-7-5-5-5-2-2-2-3-3-3-2-2-2-3-3-3-|
G|-------------------------------------------------|
D|-------------------------------------------------|
A|-5-5-5-5-5-5-5-5-5-5-5-5\2-2-2-2-2-2-2-2-2-2-2-2-|2x
E|-------------------------------------------------|
 |
 |
Guitar 2
E|-------------------------------------------------|
B|-------------------------------------------------|
G|-------2-2-2------2-2----------------------------|
D|-0-0--------0-0-------0-------4-4-2-4-4---4--2-0-|
A|------------------------2-2----------------------|2x
E|-------------------------------------------------|
  pm .   . . .. .   . . . . .   . . . . .   .  . .


PRE-CHORUS
Guitar 1
E|-------------------------------------------------|
B|---2---2---2---3---3---3---5---5---5---7---7---7-|
G|-------------------------------------------------|
D|-0---0---0---0---0---0---0---0---0---0---0---0---|
A|-------------------------------------------------|1x
E|-------------------------------------------------|


(cont.)
E|-------------------------------------------------|
B|---2---2---2---3---3---3---2---2---2---3---3---3-|
G|-------------------------------------------------|
D|-0---0---0---0---0---0---0---0---0---0---0---0---|
A|-------------------------------------------------|1x
E|-------------------------------------------------|


(cont.)
E|-------------------------------------------------|
B|---2---2---2---3---3---3---5---5---5---7---7---7-|
G|-------------------------------------------------|
D|-0---0---0---0---0---0---0---0---0---0---0---0---|
A|-------------------------------------------------|1x
E|-------------------------------------------------|


(cont.)
E|-------------------------------------------------|
B|-------------------------------------------------|
G|-------------------------------------------------|
D|-5-5-5-5-5-5-5-5-5-5-5-5-------------------------|
A|-5-5-5-5-5-5-5-5-5-5-5-5-------------------------|1x
E|-3-3-3-3-3-3-3-3-3-3-3-3-3-3-3-3-3-3-3-3-3-3-3-3-|
                          pm . . . . . . . . . . .


     CHORUS
     Guitar 1
     E|-5-5555-5-5555-5-5555-5-5555-----------------------------|
     B|-x-xxxx-x-xxxx-x-xxxx-x-xxxx-7-7777-7-7777-5-5555-5-5555-|
     G|-2-2222-2-2222-2-2222-2-2222-x-xxxx-x-xxxx-x-xxxx-x-xxxx-|
     D|-----------------------------4-4444-4-4444-2-2222-2-2222-| 
     A|---------------------------------------------------------|2x
     E|---------------------------------------------------------|
      |
      |
     Guitar 2
     E|---------------------------------------------------------|
     B|---------------------------------------------------------|
     G|-7-7777-7-7777-7-7777-7-7777-4-4444-4-4444-5-5555-5-5555-|
     D|-7-7777-7-7777-7-7777-7-7777-4-4444-4-4444-5-5555-5-5555-|
     A|-5-5555-5-5555-5-5555-5-5555-2-2222-2-2222-3-3333-3-3333-|2x
     E|---------------------------------------------------------|


     Guitar 1
     E|-----------|
     B|-3~~~~~~~~~|
     G|-x---------|
     D|-0~~~~~~~~~|
     A|-----------|1x
     E|-----------|
      |
      |
     Guitar 2
     E|-----------|
     B|-----------|
     G|-7~~~~~~~~~|
     D|-7~~~~~~~~~|
     A|-5~~~~~~~~~|1x
     E|-----------|


POST-CHORUS
Guitar 1 (Finger picking)
E|-------------------------|
B|-2-2-2-3-3-3-2-2-2-3-3-3-|
G|-------------------------|
D|-------------------------|
A|-2-2-2-2-2-2-2-2-2-2-2-2-|1x
E|-------------------------|
 |
 |
Guitar 2
E|-------------------------|
B|-------------------------|
G|-------------------------|
D|-------4-4-2-4-4---4-4-2-|
A|-2-2---------------------|2x
E|-------------------------|
  pm .   . . . . .   . . .


VERSE
Guitar 1 (Finger picking)
E|-------------------------------------------------|
B|-7-7-7-5-5-5-7-7-7-5-5-5-2-2-2-3-3-3-2-2-2-3-3-3-|
G|-------------------------------------------------|
D|-------------------------------------------------|
A|-5-5-5-5-5-5-5-5-5-5-5-5\2-2-2-2-2-2-2-2-2-2-2-2-|2x
E|-------------------------------------------------|
 |
 |
Guitar 2
E|-------------------------------------------------|
B|-------------------------------------------------|
G|-------2-2-2------2-2----------------------------|
D|-0-0--------0-0-------0-------4-4-2-4-4---4--2-0-|
A|------------------------2-2----------------------|2x
E|-------------------------------------------------|
  pm .   . . .. .   . . . . .   . . . . .   .  . .

[ Tab from: http://www.guitartabs.cc/tabs/t/taking_back_sunday/this_photograph_is_proof_tab_ver_3.html ]
PRE-CHORUS
Guitar 1
E|-------------------------------------------------|
B|---2---2---2---3---3---3---5---5---5---7---7---7-|
G|-------------------------------------------------|
D|-0---0---0---0---0---0---0---0---0---0---0---0---|
A|-------------------------------------------------|1x
E|-------------------------------------------------|


(cont.)
E|-------------------------------------------------|
B|---2---2---2---3---3---3---2---2---2---3---3---3-|
G|-------------------------------------------------|
D|-0---0---0---0---0---0---0---0---0---0---0---0---|
A|-------------------------------------------------|1x
E|-------------------------------------------------|


(cont.)
E|-------------------------------------------------|
B|---2---2---2---3---3---3---5---5---5---7---7---7-|
G|-------------------------------------------------|
D|-0---0---0---0---0---0---0---0---0---0---0---0---|
A|-------------------------------------------------|1x
E|-------------------------------------------------|


(cont.)
E|-------------------------------------------------|
B|-------------------------------------------------|
G|-------------------------------------------------|
D|-5-5-5-5-5-5-5-5-5-5-5-5-------------------------|
A|-5-5-5-5-5-5-5-5-5-5-5-5-------------------------|1x
E|-3-3-3-3-3-3-3-3-3-3-3-3-3-3-3-3-3-3-3-3-3-3-3-3-|
                          pm . . . . . . . . . . .


     CHORUS
     Guitar 1
     E|-5-5555-5-5555-5-5555-5-5555-----------------------------|
     B|-x-xxxx-x-xxxx-x-xxxx-x-xxxx-7-7777-7-7777-5-5555-5-5555-|
     G|-2-2222-2-2222-2-2222-2-2222-x-xxxx-x-xxxx-x-xxxx-x-xxxx-|
     D|-----------------------------4-4444-4-4444-2-2222-2-2222-| 
     A|---------------------------------------------------------|2x
     E|---------------------------------------------------------|
      |
      |
     Guitar 2
     E|---------------------------------------------------------|
     B|---------------------------------------------------------|
     G|-7-7777-7-7777-7-7777-7-7777-4-4444-4-4444-5-5555-5-5555-|
     D|-7-7777-7-7777-7-7777-7-7777-4-4444-4-4444-5-5555-5-5555-|
     A|-5-5555-5-5555-5-5555-5-5555-2-2222-2-2222-3-3333-3-3333-|2x
     E|---------------------------------------------------------|


     Guitar 1
     E|-----------|
     B|-7~~~~~~~~~|
     G|-x---------|
     D|-4~~~~~~~~~|
     A|-----------|1x
     E|-----------|
      |
      |
     Guitar 2
     E|-----------|
     B|-----------|
     G|-4~~~~~~~~~|
     D|-4~~~~~~~~~|
     A|-2~~~~~~~~~|1x
     E|-----------|


BRIDGE
Guitar 1
E|-------------------------|
B|-888888777777555555333333|
G|-xxxxxxxxxxxxxxxxxxxxxxxx|
D|-555555444444222222000000|
A|-------------------------|2x
E|-------------------------|
 |
 |
Guitar 2
E|-------------------------|
B|-333333555555777777888888|
G|-xxxxxxxxxxxxxxxxxxxxxxxx|
D|-000000222222444444555555|
A|-------------------------|2x
E|-------------------------|


Guitar 1
E|-------------------------|
B|-888888777777555555333333|
G|-xxxxxxxxxxxxxxxxxxxxxxxx|
D|-555555444444222222000000|
A|-------------------------|5x
E|-------------------------|
 |
 |
Guitar 2
E|-------------------------|
B|-333333555555777777888888|
G|-xxxxxxxxxxxxxxxxxxxxxxxx|
D|-000000222222444444555555|
A|-------------------------|5x
E|-------------------------|
 |
 |
Guitar 3
E|-------------------------|
B|-------------------------|
G|-------------------------|
D|-----------------x-2-2-2-|
A|-----------------x-2-2-2-|5x
E|-----------------x-0-0-0-|


Guitar 1
E|-------------------------|
B|-888888777777555555333333|
G|-xxxxxxxxxxxxxxxxxxxxxxxx|
D|-555555444444222222000000|
A|-------------------------|1x
E|-------------------------|
 |
 |
Guitar 2
E|-------------------------|
B|-333333555555777777888888|
G|-xxxxxxxxxxxxxxxxxxxxxxxx|
D|-000000222222444444555555|
A|-------------------------|1x
E|-------------------------|
 |
 |
Guitar 3
E|-------------------------|
B|-------------------------|
G|-------------------------|
D|-------------------------|
A|-------------222222222222|1x
E|-------------000000000000|
              pm...........


     CHORUS
     Guitar 1
     E|-5-5555-5-5555-5-5555-5-5555-----------------------------|
     B|-x-xxxx-x-xxxx-x-xxxx-x-xxxx-7-7777-7-7777-5-5555-5-5555-|
     G|-2-2222-2-2222-2-2222-2-2222-x-xxxx-x-xxxx-x-xxxx-x-xxxx-|
     D|-----------------------------4-4444-4-4444-2-2222-2-2222-| 
     A|---------------------------------------------------------|4x
     E|---------------------------------------------------------|
      |
      |
     Guitar 2
     E|---------------------------------------------------------|
     B|---------------------------------------------------------|
     G|-7-7777-7-7777-7-7777-7-7777-4-4444-4-4444-5-5555-5-5555-|
     D|-7-7777-7-7777-7-7777-7-7777-4-4444-4-4444-5-5555-5-5555-|
     A|-5-5555-5-5555-5-5555-5-5555-2-2222-2-2222-3-3333-3-3333-|4x
     E|---------------------------------------------------------|
      |
      |
     Guitar 3
     E|---------------------------------------------------------|
     B|---------------------------------------------------------|
     G|---------------------------------------------------------|
     D|------7h9p7\5\4h5/7~~~~~~7h9p7\5\4h5/7~~~~~~7h9p7\5\4h5/7|
     A|---------------------------------------------------------|4x
     E|---------------------------------------------------------|


OUTTRO
Guitar 2
E|-----------|
B|-----------|
G|-7~~~~~~~~~|
D|-7~~~~~~~~~|
A|-5~~~~~~~~~|1x
E|-----------|
Comments