Taking Back Sunday - There Is No I In Team Chords & Tabs

 

There Is No I In Team Chords & Tabs

Taking Back Sunday Chords & Tabs

Version: 1 Type: Tab 0 ratings
1 star 2 stars 3 stars 4 stars 5 stars
comments

There Is No I In Team Tab

Taking Back Sunday - There Is No "I" In Team

By: Dan, ribbetizeme@yahoo.com 
This is how I play it, so if its wrong, I dont care. 
E-mail me for requests. 

~ = vibarato 
/ = slide 

Guitar 1 - Intro/Verse 
e|---------------------------------------------------------------------------| 
B|---------------------------------------------------------------------------| 
G|-7-6---7-6---7-6---7-6---7-6---6-------------------------------------------| 
D|-----7-----7-----7-----7-----7---------------------------------------------| 
A|---------------------------------------------------------------------------| 
D|---------------------------------------------------------------------------| 
[ Tab from: http://www.guitartabs.cc/tabs/t/taking_back_sunday/there_is_no_i_in_team_tab.html ]
Guitar 2 - Intro, Verse, Chorus 
e|--------------7---------9-----9----9----9----------------------------------| 
B|---------------------------------------------------------------------------| 
G|-4~-------6~----6-----7~----7~---7~----7~----------------------------------| 
D|---------------------------------------------------------------------------| 
A|---------------------------------------------------------------------------| 
E|---------------------------------------------------------------------------| 

Chorus 
e|---------------------------------------------------------------------------| 
B|---------------------------------------------------------------------------| 
G|-4444444/6-----------------------------------------------------------------| 
D|-4444444/6--7777777/9--5555555555555555------------------------------------| 
A|-2222222/4--7777777/9--5555555555555555------------------------------------| 
D|------------7777777/9--5555555555555555------------------------------------| 

Bridge - Palm mute this chord in the rythm of the song. 
Its really not that hard. Both guitars play this. 
e|---------------------------------------------------------------------------| 
B|---------------------------------------------------------------------------| 
G|---------------------------------------------------------------------------| 
D|-0000000000000-------------------------------------------------------------| 
A|-0000000000000-------------------------------------------------------------| 
D|-0000000000000-------------------------------------------------------------| 
[----pm-----]
Comments