Taking Back Sunday - The Blue Channel Chords & Tabs

 

The Blue Channel Chords & Tabs

Taking Back Sunday Chords & Tabs

Version: 4 Type: Tab 0 ratings
1 star 2 stars 3 stars 4 stars 5 stars
comments

The Blue Channel Tab

i dont know if the intro is even guitar...but here is the rest of the song


.Introduction/Verse.
E----------------------------------------------------------------
B---5-5-5-5-5-5-5-5---3-3-3-3-3-3-3-3----------------------------
G---7-7-7-7-7-7-7-7---5-5-5-5-5-5-5-5----------------------------
D---7-7-7-7-7-7-7-7---5-5-5-5-5-5-5-5----------------------------
A----------------------------------------------------------------
E----------------------------------------------------------------



.Chorus.
E----------------------------------------------------------------
B---5---7---3-3--------------------------------------------------
G---7---9---5-5--------------------------------------------------
D---7---9---5-5--------------------------------------------------
A----------------------------------------------------------------
E----------------------------------------------------------------

[ Tab from: http://www.guitartabs.cc/tabs/t/taking_back_sunday/the_blue_channel_tab_ver_4.html ]
.Verse.
E----------------------------------------------------------------
B---5-5-5-5-5-5-5-5---3-3-3-3-3-3-3-3----------------------------
G---7-7-7-7-7-7-7-7---5-5-5-5-5-5-5-5----------------------------
D---7-7-7-7-7-7-7-7---5-5-5-5-5-5-5-5----------------------------
A----------------------------------------------------------------
E----------------------------------------------------------------


.Chorus.
E----------------------------------------------------------------
B---5---7---3-3--------------------------------------------------
G---7---9---5-5--------------------------------------------------
D---7---9---5-5--------------------------------------------------
A----------------------------------------------------------------
E----------------------------------------------------------------

.Bridge.
E----------------------------------------------------------------
B---5-5-5-5-5-5-5-5---3-3-3-3-3-3-3-3----------------------------
G---7-7-7-7-7-7-7-7---5-5-5-5-5-5-5-5----------------------------
D---7-7-7-7-7-7-7-7---5-5-5-5-5-5-5-5----------------------------
A----------------------------------------------------------------
E----------------------------------------------------------------

It's the same as the verse but different strumming (up and down) until the end of the song.
Comments