Taking Back Sunday - The Blue Channel Chords & Tabs

 

The Blue Channel Chords & Tabs

Taking Back Sunday Chords & Tabs

Version: 2 Type: Tab 0 ratings
1 star 2 stars 3 stars 4 stars 5 stars
comments

The Blue Channel Tab

------------------------------------------------------------------------------- 
                    The Blue Channel - Taking Back Sunday
------------------------------------------------------------------------------- 

Tabber: Woj (frozenover@comcast.net) 
Comments: There's not many TBS tabs up, and theyre a great band, so im glad to
put this up. I don't have the rhythms, but listen to the cd and youll be able
to get it. I havent figured out the random high notes that guitar 1 plays at
some parts, but thats ok. 

*- hit chord once, slide to next 
x- palm mute 
()- first/third time only 

Verse 2x: 
e -------------------------------- 
B -------------------------------- 
G -------------------------------- 
D -12-10-8-7-8-7-8-7-8------------ 
A -12-10-8-7-8-7-8-7-8------------ 
E -10-8--6-5-6-5-6-5-6------------ 
* * * * * * 
[ Tab from: http://www.guitartabs.cc/tabs/t/taking_back_sunday/the_blue_channel_tab_ver_2.html ]
Chorus 4x: 
e -------------------------------- 
B -------------------------------- 
G -------------------------------- 
D -12-8-10-10-8------------------- 
A -12-8-10-10-8------------------- 
E -10-6-8--8--6------------------- 
* * * (x) 

Gtr. 1 (played during last chord of chorus) 
e --6-----6-----6----6-----6---6---
B ----6-6---6-6--6-6---6-6---6---6-

or 

e --6-- 
B --6-- 


Bridge/Outro: 
Gtr. 1 (pretty sure): 
e -------------------------------- 
B -------------------------------- 
G -------------------------------- 
D -12-15-19-20-------------------- 
A -12-15-19-20-------------------- 
E -10-13-17-18-------------------- 

Gtr 2. 
e -------------------------------- 
B -------------------------------- 
G -------------------------------- 
D -12-10-7-8---------------------- 
A -12-10-7-8---------------------- 
E -10-8--5-6---------------------- 

==============================================================================
Comments