Taking Back Sunday - Tell All Your Friends Chords & Tabs

 

Tell All Your Friends Chords & Tabs

Taking Back Sunday Chords & Tabs

Version: 1 Type: Tab 0 ratings
1 star 2 stars 3 stars 4 stars 5 stars
comments

Tell All Your Friends Tab

   
-------------------------------------------------------------------------------
	      Tell All Your Friends Album - Taking Back Sunday
-------------------------------------------------------------------------------
Tabbed by: JodyPayne
Email: sorrowfulmorning@yahoo.com

I do not take all credit for this Tab. I repeat. I DO NOT take all credit for this
tab.
My favorite band out right now. So original and I love their music.
This is the new TBS, Fred and Matt were not in TBS when TAYF came out...
Vocals: Adam Lazzara
Guitar/Vocals: Fred Mascherino
Guitar: Eddie Reyes
Bass: Matt Rubano
Drums: Mark O'Connell

This whole album is great, all songs! I could listen to it all day. EVerything 
about this band is so great. And I havent seen this whole albums tabs yet so I
figured I would tab it. Have fun! Please Rate...

Sorry about GROT20thC

1. You Know How I Do__________________________________________________________

Tuning: Standard          Pretty Simple Song

				Intro/Verse:

	"So sick, so sick of being tired..."
					x12
e|-----------------------------------------|
B|-----------------------------------------|
G|---4-4-4-4-4-4-4-4-6-6-6-8-8-8-8---------|
D|---x-x-x-x-x-x-x-x-x-x-x-x-x-x-x---------|
A|---2-2-2-2-2-2-2-2-4-4-4-6-6-6-6---------|
E|-----------------------------------------|

				Chorus:
	"We wont stand for hazy eyes anymore..."
e|-------|
B|-------|
G|---4---|<---Listen For Strumming
D|---x---|
A|---2---|
E|-------|

			Repeat The Intro/ Verse x10

			Repeat Chorus x1

			Bridge:

e|-----------------------------------|
B|-----------------------------------|
G|---4-4-4-4-4-4-2-2-2-2-2-4---------|
D|---4-4-4-4-4-4-2-2-2-2-2-4-2~------|<---Play right before Bass Solo
A|---2-2-2-2-2-2-0-0-0-0-0-2-2~------|
E|---------------------------0~------|

			Outro:	(Play only first three times)
   "We wont stand for hazy eyes anymore..."		x4
e|------------------------------------------------------------|
B|------------------------------------------------------------|
G|4444444444444444----------------4444444422222222------------|
D|444444444444444422222222222222224444444422222222(22222222)--|
A|222222222222222222222222222222222222222200000000(22222222)--|
E|----------------0000000000000000----------------(00000000)--|

	Outro cont:
e|----------------------|
B|----------------------|
G|----------------------|
D|--2~------------------|
A|--2~------------------|
E|--0~------------------|

2. Bike Scene_________________________________________________________________

			Intro:

e|-------------------------------------------------|
B|-------------------------------------------------|
G|-55555--555555/1212121212--1212121212-10---------|
D|-55555--555555/1212121212--1212121212-10---------|
A|-33333--333333/1010101010--1010101010-8----------|
E|-------------------------------------------------|

			Verse:

"I'll leave the lights down low so she knows..." 
Guitar 2
e|-------------------------------------------------| 
B|-------------------------------------------------| 
G|-------------------------------------------------| 
D|-7777777777777777-55555555-33333333--------------| 
A|-7777777777777777-55555555-33333333--------------| 
E|-5555555555555555-33333333-11111111--------------| 
PM **************** ******** ********

Guitar 1 
e|-------------------------------------------------| 
B|-------------------------------------------------| 
G|---5-4--------------5-4--------------------------| 
D|--5----------------5-----------------------------| 
A|-0-----------------------------------------------| 
E|------------------3------------------------------|

Guitar 1 
E|-------------------------------------------------| 
B|-------------------------------------------------| 
G|-55555555555555555555555555555555----------------| 
D|-55555555555555555555555555555555----------------| 
A|-33333333333333333333333333333333----------------| 
E|-------------------------------------------------| 

Guitar 2 
E|-------------------------------------------------| 
B|-------------------------------------------------| 
G|---5-4---------------5-4-------------------------| 
D|--5-----------------5----------------------------| 
A|-3-----------------3-----------------------------| 
E|-------------------------------------------------| 

Best bet.... 
Guitar 1 
E|-------------------------------------------------| 
B|-------------------------------------------------| 
G|-------------------------------------------------| 
D|-7777777777777777-55555555-33333333--------------| 
A|-7777777777777777-55555555-33333333--------------| 
E|-5555555555555555-33333333-11111111--------------| 

Guitar 2 
E|-------------------------------------------------| 
B|-------------------------------------------------| 
G|---5-4--------------5-4--------------------------| 
D|--5----------------5-----------------------------| 
A|-0-----------------------------------------------| 
E|------------------3------------------------------| 


Chorus 
E|-------------------------------------------------| 
B|-------------------------------------------------| 
G|-55555555/77777777/99999999-1010101010101010\9\--| 
D|-55555555/77777777/99999999-1010101010101010\9\--| 
A|-33333333/55555555/77777777/8-8-8-8-8-8-8-8-\7\--| 
E|-------------------------------------------------| 

E|-------------------------------------------------| 
B|-------------------------------------------------| 
G|-------------------------------------------------| 
D|-77777777\55555555\3333333333333-----------------| 
A|-77777777\55555555\3333333333333(ring out chord)-| 
E|-55555555\33333333\1111111111111-----------------| 

E|-------------------------------------------------| 
B|-------------------------------------------------| 
G|-55555555/77777777/99999999-1010101010101010\9\--| 
D|-55555555/77777777/99999999-1010101010101010\9\--| 
A|-33333333/55555555/77777777/8-8-8-8-8-8-8-8-\7\--| 
E|-------------------------------------------------| 

E|-------------------------------------------------| 
B|-------------------------------------------------| 
G|-------------------------------------------------| 
D|-77777777\55555555\3333333333333-3-x-------------| 
A|-77777777\55555555\3333333333333-3-x-------------| 
E|-55555555\33333333\1111111111111-1-x-------------| 

2nd Verse (2 times) 
E|-------------------------------------------------| 
B|-------------------------------------------------| 
G|-55555xxxx5555555/1212121212xxxx121212\10101010--| 
D|-55555xxxx5555555/1212121212xxxx121212\10101010--| 
A|-33333xxxx3333333/1010101010xxxx101010\8-8-8-8---| 
E|-------------------------------------------------| 

(figure out the strumming pattern here) 
E|-------------------------------------------------| 
B|-------------------------------------------------| 
G|-99999xxxx99999/101010---------------------------| 
D|-99999xxxx99999/101010-12\10\9\7/9/10\9\7--------| 
A|-77777xxxx77777/8-8-8--10\8-\7\5/7/8-\7\5--------| 
E|-------------------------------------------------| 

Chorus 
E|-------------------------------------------------| 
B|-------------------------------------------------| 
G|-55555555/77777777/99999999-1010101010101010\9\--| 
D|-55555555/77777777/99999999-1010101010101010\9\--| 
A|-33333333/55555555/77777777/8-8-8-8-8-8-8-8-\7\--| 
E|-------------------------------------------------| 

E|-------------------------------------------------| 
B|-------------------------------------------------| 
G|-------------------------------------------------| 
D|-77777777\55555555\3333333333333-----------------| 
A|-77777777\55555555\3333333333333(ring out chord)-| 
E|-55555555\33333333\1111111111111-----------------| 

E|-------------------------------------------------| 
B|-------------------------------------------------| 
G|-55555555/77777777/99999999-1010101010101010\9\--| 
D|-55555555/77777777/99999999-1010101010101010\9\--| 
A|-33333333/55555555/77777777/8-8-8-8-8-8-8-8-\7\--| 
E|-------------------------------------------------| 

E|-------------------------------------------------| 
B|-------------------------------------------------| 
G|-----------------------------------5-4-5---------| 
D|-77777777\55555555\3333333333333-3-5-4-5---------| 
A|-77777777\55555555\3333333333333-3-3-2-3---------| 
E|-55555555\33333333\1111111111111-1---------------| 

Bridge (Both Guitars on Clean) 
E|-------------------------------------------------| 
B|-------------------------------------------------| 
G|----5-4--------5-4---------5-4--------5-4--------| 
D|--5-----5-----5----5-----5-----5----5----5-------| 
A|-3-3---------3-3--------0-0-----0--0-0----0------| 
E|-------------------------------------------------| 

And this is all wrong... 
E|-------------------------------------------------| 
B|-------------------------------------------------| 
G|----5-4-------5-4-------5-4-------5-4------------| 
D|--5------5--5------5--5------5--5------5---------| 
A|-3-3-------3-3-------0-0-------0-0---------------| 
E|-------------------------------------------------| 

I'm missing you... 
(Flanger anyone?) 
Guitar 1 
E|-------------------------------------------------| 
B|-------------------------------------------------| 
G|---10-9-12-----12-10-9-10-9h10-5-----------------| 2 Times 
D|-------------------------------------------------| 
A|-------------------------------------------------| 
E|-------------------------------------------------| 

Guitar 2- I cant figure out what he's playing but for now, 
keep the acoutic playing these two chords in the background 
E|-----------------------------------------------8-| 
B|---------------------------------------------6---| 
G|-5---------------------2--------------------5-5--| 
D|-5---------------------2-------------------------| 2 Times 
A|-3---------------------0-------------------------| 
E|-------------------------------------------------| 


Guitar 1 
play 1st (5) 2nd time through 
E|-------------------------------------------------| 
B|-------------------------------------------------| 
G|-(5)-4-5-4-5-45-4-5-4-5-45-4-5-4-5-45-4/77777-5--| 
D|-------------------------------------------------| 2 Times 
A|-------------------------------------------------| 
E|-------------------------------------------------| 

Next Part in Bridge 
Guitar 1- Flanger 
E|-------------------------------------------------| 
B|-------------------------------------------------| 
G|-12-10-9-10-9h10-5------12-10-9-10-9h10-5--------| 
D|-------------------------------------------------| 
A|-------------------------------------------------| 
E|-------------------------------------------------| 

E|-------------------------------------------------| 
B|-------------------------------------------------| 
G|-12-10-5-----7-9-10/12---------------------------| 
D|-------------------------------------------------| 
A|-------------------------------------------------| 
E|-------------------------------------------------| 

E|-------------------------------------------------| 
B|-------------------------------------------------| 
G|-12-10-9-10-9h10-5------12-10-9-10-9h10-5--------| 
D|-------------------------------------------------| 
A|-------------------------------------------------| 
E|-------------------------------------------------| 

E|-------------------------------------------------| 
B|-------------------------------------------------| 
G|-12-10-5-------7~--------------------------------| 
D|-------------------------------------------------| 
A|-------------------------------------------------| 
E|-------------------------------------------------| 

Guitar 2 
E|-------------------------------------------------| 
B|-------------------------------------------------| 
G|-5---------------------2-------------------------| 
D|-5---------------------2-------------------------|2 times 
A|-3---------------------0-------------------------| 
E|-------------------------------------------------| 

Ending Section 
(lets bring back the distortion) 
You've got me right...... 
E|-------------------------------------------------| 
B|-------------------------------------------------| 
G|-55555555555555555555555555555555----------------| 
D|-55555555555555555555555555555555----------------| 
A|-33333333333333333333333333333333----------------| 
E|-------------------------------------------------| 

Want me... 
E|-------------------------------------------------| 
B|-------------------------------------------------| 
G|-------------------------------------------------| 
D|-77777777777777777777777777777777----------------| 
A|-77777777777777777777777777777777----------------| 
E|-55555555555555555555555555555555----------------| 

(Let's)Never talk about this... 
E|-------------------------------------------------| 
B|-------------------------------------------------| 
G|-55555555555555555555555555555555----------------| 
D|-55555555555555555555555555555555----------------| 
A|-33333333333333333333333333333333----------------| 
E|-------------------------------------------------| 

Talk about this again because I 
E|-------------------------------------------------| 
B|-------------------------------------------------| 
G|-------------------------------------------------| 
D|-77777777777777777777777777777777----------------| 
A|-77777777777777777777777777777777----------------| 
E|-55555555555555555555555555555555----------------| 

I didn't want it to mean that much to me.. 
E|-------------------------------------------------| 
B|-------------------------------------------------| 
G|-55555555555555555555555555555555----------------| 
D|-55555555555555555555555555555555----------------| 
A|-33333333333333333333333333333333----------------| 
E|-------------------------------------------------| 

I didnt want it to mean that much to me.. 
E|-------------------------------------------------| 
B|-------------------------------------------------| 
G|-------------------------------------------------| 
D|-77777777777777777777777777777777----------------| 
A|-77777777777777777777777777777777----------------| 
E|-55555555555555555555555555555555----------------| 

I didn't want it to mean that much to me.. 
Guitar 1 
E|-------------------------------------------------| 
B|-------------------------------------------------| 
G|-55555555555555555555555555555555----------------| 
D|-55555555555555555555555555555555----------------| 
A|-33333333333333333333333333333333----------------| 
E|-------------------------------------------------| 

Guitar 2 
E|-------------------------------------------------| 
B|-------------------------------------------------| 
G|-12-10-9-10-9h10p9--12-10-9-10-9h10p9------------| 
D|-------------------------------------------------| 
A|-------------------------------------------------| 
E|-------------------------------------------------| 

I didnt want it to mean that much to me.. 
Guitar 1 
E|-------------------------------------------------| 
B|-------------------------------------------------| 
G|-------------------------------------------------| 
D|-77777777777777777777777777777777----------------| 
A|-77777777777777777777777777777777----------------| 
E|-55555555555555555555555555555555----------------| 

Guitar 2 
E|-------------------------------------------------| 
B|-------------------------------------------------| 
G|-12-10-9-10-9h10p9--12-10-9-10-9h10p9------------| 
D|-------------------------------------------------| 
A|-------------------------------------------------| 
E|-------------------------------------------------| 

				Outro:
Guitar 1 
E|-------------------------------------------------| 
B|-------------------------------------------------| 
G|-5---5---5---5---5-------5---5---5---5---5-------| 
D|-5---5---5---5---5-------5---5---5---5---5-------| 
A|-3---3---3---3---3-------3---3---3---3---3-------| 
E|-------------------------------------------------| 

Guitar 2 
E|-------------------------------------------------| 
B|-------------------------------------------------| 
G|-12-10-9-10-9h10p9--12-10-9-10-9h10p9------------| 
D|-------------------------------------------------| 
A|-------------------------------------------------| 
E|-------------------------------------------------| 

Guitar 1 
E|-------------------------------------------------| 
B|-------------------------------------------------| 
G|-5---5---5---5---5-------5---5---5---------------| 
D|-5---5---5---5---5-------5---5---5---------------| 
A|-3---3---3---3---3-------3---3---3---------------| 
E|-------------------------------------------------| 

Guitar 2 
E|-------------------------------------------------| 
B|-------------------------------------------------| 
G|-12-10-9-10-9h10p9--------12-10-9----------------| 
D|-------------------------------------------------| 
A|-------------------------------------------------| 
E|-------------------------------------------------| 

3. Cute Without The E (Cut From The Team)_______________________________________

			Intro:  
			Guitar 1 (No Guitar 2)
			
	(0:00-0:09)		x2
e|--------------------------------|
B|--0---0-------0-----------------|
G|--4---4---4---4-----------------|
D|--2---2---2---1-----------------|
A|--4---0---2---2-----------------|
E|--------------------------------|

			Verse:
			Guitar 1 (Repeat 6 times)
             (0:10-0:38)                      				x6
e|-----------------|-----------------|-----------------|---------------------|
B|-----------------|-----------------|-----------------|---------------------|
G|---------4-4---4-|---------4-4---4-|---------4-4---4-|---------------------|
D|-----2-------2---|-----2-------2---|-----2-------2---|-----1---2-1---1-----|
A|-4-4---4---------|-0-0---0---------|-2-2---2---------|-2-2---2-----2-------|\
E|-----------------|-----------------|-----------------|---------------------| \
PM * * * *     *     * * * *     *     * * * *     *     * * * * * * * *        \
										 \  Verse
			Guitar 2 (Repeat 6 times)   				 /     
		(0:10-0:38)						x6	/
e|---------------------------------------------------------------------------| /
B|---------------------------------------------------------------------------|/
G|--66666666--22222222-------------------------------------------------------|
D|--66666666--22222222--99999999--99999999-----------------------------------|
A|--44444444--00000000--99999999--99999999-----------------------------------|
E|----------------------77777777--77777777-----------------------------------|
PM  ********  ********  ********  ********

			Chorus:
			Guitars 1 and 2 (Repeat 4 times)
                (0:38-0:59)
e|---------------------------------------------------------------------------|
B|---------------------------------------------------------------------------|
G|--66666666--44444444--99999999--22222222-----------------------------------|
D|--66666666--44444444--99999999--22222222-----------------------------------|
A|--44444444--22222222--77777777--00000000-----------------------------------|
E|---------------------------------------------------------------------------|

[ Tab from: http://www.guitartabs.cc/tabs/t/taking_back_sunday/tell_all_your_friends_tab.html ]
			Verse:
			Guitar 1 (Repeat 6 times)
                (0:59-1:27)   	                			x6
e|-----------------|-----------------|-----------------|---------------------|
B|-----------------|-----------------|-----------------|---------------------|
G|---------4-4---4-|---------4-4---4-|---------4-4---4-|---------------------|
D|-----2-------2---|-----2-------2---|-----2-------2---|-----1---2-1---1-----|
A|-4-4---4---------|-0-0---0---------|-2-2---2---------|-2-2---2-----2-------|\
E|-----------------|-----------------|-----------------|---------------------| \
PM * * * *     *     * * * *     *     * * * *     *     * * * * * * * *        \
										 \  Verse
			Guitar 2 (Repeat 6 times)   				 /     
		(0:59-1:27)						x6	/
e|---------------------------------------------------------------------------| /
B|---------------------------------------------------------------------------|/
G|--66666666--22222222-------------------------------------------------------|
D|--66666666--22222222--99999999--99999999-----------------------------------|
A|--44444444--00000000--99999999--99999999-----------------------------------|
E|----------------------77777777--77777777-----------------------------------|
PM  ********  ********  ********  ********

			Chorus:
			Guitars 1 and 2 (Repeat 4 times)
                (1:27-1:48)
e|---------------------------------------------------------------------------|
B|---------------------------------------------------------------------------|
G|--66666666--44444444--99999999--22222222-----------------------------------|
D|--66666666--44444444--99999999--22222222-----------------------------------|
A|--44444444--22222222--77777777--00000000-----------------------------------|
E|---------------------------------------------------------------------------|

			Bridge:
			Guitar 1 (2 Ways to do this)
           **(Listen to the song to here how many times you will repeat this)**
	(1:59-2:26)
e|----------------------------|                         e|----4---4-5-4h5p4-----------|
B|---9---9-10-9h10p9----------|<---I find this way to   B|---5---5--------------------|
G|--9---9---------------------|    sound better but you G|--4---4---------------------|
D|-9---9----------------------|    you may find this--->D|----------------------------|
A|----------------------------|    way better           A|----------------------------|
E|----------------------------|                         E|----------------------------|

			Bridge:
                        Guitar 2 (This parts really quiet)
     x1   (1:53-2:38)         x9
e|-----|-------------------------|
B|-----|-------------------------|
G|--9--|--6--4--9--2-------------|
D|--9--|--6--4--9--2-------------|
A|--7--|--4--2--7--0-------------|
E|-----|-------------------------|

			Bridge cont:
			Guitar 1
    (2:40-2:47)
e|------------------|  (Repeated in song, just listen)
B|------------------|
G|------------------|
D|--2-1---2-1-------|
A|-----2-----2------|
E|------------------|

			Bridge cont:
			Guitar 2
(2:39-2:49)	x3
e|----------------|
B|----------------|
G|--6--2--4-------|
D|--6--2--4-------|
A|--4--0--2-------|
E|----------------|

			Outro:
			Guitar 1
	(2:49-3:20)	x4	    x1
e|----------------------------|-------|
B|--5-4-5-4-5-4-5-4-----------|--10-4-|
G|----------------------------|-------|
D|----------------------------|-------|
A|----------------------------|-------|
E|----------------------------|-------|

			Outro:
			Guitar 2
	(2:50-3:20 i think)		x6
e|--------------------------------------------------------------------------|
B|--------------------------------------------------------------------------|
G|--66666666--22222222------------------------------------------------------|
D|--66666666--22222222--99999999--99999999----------------------------------|
A|--44444444--00000000--99999999--99999999----------------------------------|
E|----------------------77777777--77777777----------------------------------|

			Outro cont.
			Guitar 2
			End With This
     (3:21)
e|----------------------------|
B|----------------------------|
G|--6--2--4~------------------|
D|--6--2--4~------------------|
A|--4--0--2~------------------|
E|----------------------------|

4. Theres No I In Team_________________________________________________________

				Guitar 2: (Intro and Verse) 
e|---------------------------------------------------------------------------| 
B|---------------------------------------------------------------------------| 
G|-7-6---7-6---7-6---7-6---7-6---6-------------------------------------------| 
D|-----7-----7-----7-----7-----7---------------------------------------------| 
A|---------------------------------------------------------------------------| 
D|---------------------------------------------------------------------------| 

				Guitar 1: (Intro and Verse and Chorus) 

e|--------------7---------9-----9----9----9----------------------------------| 
B|---------------------------------------------------------------------------| 
G|-4~-------6~----6-----7~----7~---7~----7~----------------------------------| 
D|---------------------------------------------------------------------------| 
A|---------------------------------------------------------------------------| 
E|---------------------------------------------------------------------------| 

				Chorus:
 
e|---------------------------------------------------------------------------| 
B|---------------------------------------------------------------------------| 
G|-4444444/6-----------------------------------------------------------------| 
D|-4444444/6--7777777/9--5555555555555555------------------------------------| 
A|-2222222/4--7777777/9--5555555555555555------------------------------------| 
D|------------7777777/9--5555555555555555------------------------------------| 

				Bridge:
 			Both Guitars
e|---------------------------------------------------------------------------| 
B|---------------------------------------------------------------------------| 
G|---------------------------------------------------------------------------| 
D|-0000000000000-------------------------------------------------------------| 
A|-0000000000000-------------------------------------------------------------| 
D|-0000000000000-------------------------------------------------------------| 
PM *************

5. Great Romances Of The 20th Century___________________________________________

				Intro:
					x4
e|---------------------------------------------|
B|--------------4---------------4--------------|
G|----4-4-----4--4-4---4-4----------4----------|
D|---4-4-4-4-4-4--4---4-4-4--4-4-4-4-4---------|
A|--2-----2------------------------------------|
E|----------0--------2------2-4---2------------|

				Verse:

e|---------------------------------------------------------------------------| 
B|---------------------------------------------------------------------------| 
G|----------------------44444444---------------------------------------------| 
D|--66666666--22222222--44444444--44444444-----------------------------------| 
A|--66666666--22222222--22222222--44444444-----------------------------------| 
E|--44444444--00000000------------22222222-----------------------------------| 

				Bridge:

e|------------------------------------------|
B|----------------------4-------------------|<--- Repeated in song!
G|-------4----------4-----4------4---4------|
D|---4-----4----------4-----4------4---4--4-|
A|-----6-----6-----------------2----------4-|
E|-4--------------0-----------------------2-|



e|---------------------------------------------------------------------------| 
B|---------------------------------------------------------------------------| 
G|--4-------------------------44444444---------------------------------------| 
D|--4--4--66666666--22222222--44444444---------------------------------------| 
A|--2--x--66666666--22222222--22222222---------------------------------------| 
E|-----6--44444444--00000000-------------------------------------------------| 
				I couldnt get the rest, Ill work
				on it and post it soon. Sorry.


6. Ghost Man On Third_____________________________________________________

Drop-D Tuning

				Intro/Verse:
				 x4
e|---------------------------------------|
B|-------7-------7----------7-------7----|
G|---0-------0----------0-------0--------|
D|---------------------------------------|
A|-7---7---7---7---0-5----5---5---5------|
D|---------------------------------------|
				Cont...
e|---------------------------------------|
B|---------5-------5-------3-------0-----|
G|-----0-------0-------0-------0---------|
D|---------------------------------------|
A|-0-3---3---3---3---3---3---3---3---3/7-|
D|---------------------------------------|

				Chorus:
(Strumming Not Defined)
e|-X---X---0---0---X---X---X---X---------|
B|-3---3---0---0---3---3---3---3---------|
G|-2---2---0---0---0---0---0---0---------|
D|-5---4---2---2---2---2---2---2---------|
A|-0---0---2---2---3---3---3---3---------|
D|-0---0---2---2---X---X---X---X---------|

				Play In 2nd Verse
e|---------------------------------------|
B|-------------------------3-------------|
G|-9--7--5--5--4-------------------------|
D|-9--7--5--------5--4--5----------------|
A|-7--5--3-------------------------------|
D|---------------------------------------|

				Outro:
e|---------------------------------------|
B|---------------------------------------|
G|-------5-------------------------------| 
D|-2--0--5-------------------------------|
A|-2--0--3-------------------------------|
D|-2--0----------------------------------|

7.Timberwolves In New Jersey____________________________________
Intro X2
|e|---------------------------------|
|B|-11-11-11-11-1-1-33-33-33-33-3-3-|
|G|-xx-xx-xx-xx-x-x-xx-xx-xx-xx-x-x-|
|D|-33-33-33-33-3-3-55-55-55-55-5-5-|
|A|-33-33-33-33-3-3-55-55-55-55-5-5-|
|E|---------------------------------|

Continued...
|e|-00-00-00-00-0-0-----------------|
|B|-11-11-11-11-1-1-33-33-33-33-3-3-|
|G|-00-00-00-00-0-0-xx-xx-xx-xx-x-x-|
|D|-22-22-22-22-2-2-55-55-55-55-5-5-|
|A|---------------------------------|
|E|---------------------------------|


Verse X2
|e|---------------------------------|
|B|---------------------------------|
|G|---------------------------------|
|D|-33-33-33-33-3-3-55-55-55-55-5-5-|
|A|-33-33-33-33-3-3-55-55-55-55-5-5-|
|E|-11-11-11-11-1-1-33-33-33-33-3-3-|

Continued...
|e|---------------------------------|
|B|---------------------------------|
|G|-----------------44-44-44-44-4-4-|
|D|-77-77-77-77-7-7-44-44-44-44-4-4-|
|A|-77-77-77-77-7-7-22-22-22-22-2-2-|
|E|-55-55-55-55-5-5-----------------|


Chorus
|e|-------------------------------------|
|B|--------------------------------5----|
|G|----------55555555--------------4----|
|D|-77777777-55555555-55555555----------|
|A|-77777777-33333333-55555555-222---222|
|E|-55555555----------33333333-000---000|


From here:

Intro X2
Verse X2
Chorus X2
Interlude X8
Outro X4
Interlude X8

|e|-----------------------------0-------|
|B|-----0-------0-------0-----0---0-----|
|G|---5---5---5---5---5---5-------------|
|D|-------------------------------------|
|A|-0-------3---------------------------|
|E|-----------------0-------1-----------|

Outro X4
|e|-------------------------------------|
|B|-------------------------------------|
|G|----------55555555-------------------|
|D|-77777777-55555555-55555555-33333333-|
|A|-77777777-33333333-55555555-33333333-|
|E|-55555555----------33333333-11111111-|

8.The Blue Channel____________________________________
Verse 2x: 
e -------------------------------- 
B -------------------------------- 
G -------------------------------- 
D -12-10-8-7-8-7-8-7-8------------ 
A -12-10-8-7-8-7-8-7-8------------ 
E -10-8--6-5-6-5-6-5-6------------ 
* * * * * * 

Chorus 4x: 
e -------------------------------- 
B -------------------------------- 
G -------------------------------- 
D -12-8-10-10-8------------------- 
A -12-8-10-10-8------------------- 
E -10-6-8--8--6------------------- 
* * * (x) 

Gtr. 1 (played during last chord of chorus) 
e --6-----6-----6----6-----6---6---
B ----6-6---6-6--6-6---6-6---6---6-

or 

e --6-- 
B --6-- 


Bridge/Outro: 
Gtr. 1 (pretty sure): 
e -------------------------------- 
B -------------------------------- 
G -------------------------------- 
D -12-15-19-20-------------------- 
A -12-15-19-20-------------------- 
E -10-13-17-18-------------------- 

Gtr 2. 
e -------------------------------- 
B -------------------------------- 
G -------------------------------- 
D -12-10-7-8---------------------- 
A -12-10-7-8---------------------- 
E -10-8--5-6----------------------

9.Your So Last Summer__________________________________

===========================
INTRO
===========================
GTR 2
e|-------------------
b|-------------------
g|--666777777777-----
d|--6667777777776----
a|--4445555555550----
e|------------------- x4
pm..************..*..

============================================================================
VERSE
============================================================================
GUITAR 1(LEAD)
listen to the song to figure out where u play this
e|-----------------------------
b|--10p0-7p0---7~--------------
g|-----------9-----------------
d|-----------------------------
a|-----------------------------
e|-----------------------------
then an octave higher --
e|--17--14---------------------
b|----12--12--17-15~-----------
g|-----------------------------
d|-----------------------------
a|-----------------------------
e|-----------------------------   {whole thing x2}

guitar 2
e|-------------------
b|-------------------
g|--666777777777-----
d|--666777777777--6--
a|--444555555555--0--
e|------------------- x2
pm..************..*..

e|---------------------
b|---------------------
g|--4444444444444444---
d|--4444444444444444---
a|--2222222222222222---
e|---------------------
pm..****************...
e|---------------------
b|---------------------
g|---------------------
d|--5555555555555555---
a|--5555555555555555---
e|--3333333333333333---
pm..****************... {whole thing x2}
 
REPEAT THE WHOLE GUITAR TAB TWICE
then the last time thru it play the 3-5-5 without palm mute.
listen to the song to see exactly how.
============================================================
CHORUS
============================================================
GUITAR 1(LEAD)
e|-----------------------------
b|-----------------------------
g|-77777777777664466-----------
d|-xxxxxxxxxxxxxxxxx-----------
a|-55555555555442244-----------
e|-----------------------------

e|----------------------------
b|----------------------------
g|------444444444-------------
d|-44444444444444-------------
a|-44444222222222-------------
e|-22222----------------------



guitar 2
e|----------------------
b|----------------------
g|--777777777777777-----
d|--777777777777777-----
a|--555555555555555-----
e|----------------------

e|---------------------
b|---------------------
g|---------------------
d|--4444444444444444---
a|--4444444444444444---
e|--2222222222222222---

e|---------------------
b|---------------------
g|--4444444444444444---
d|--4444444444444444---
a|--2222222222222222---
e|---------------------

e|---------------------
b|---------------------
g|---------------------
d|--5555555555555555---
a|--5555555555555555---
e|--3333333333333333---

======================================================
VERSE 2
======================================================

No guitar 1 playing in this verse !!

then
====================================
CHORUS
====================================
then
====================================
BRIDGE
====================================
GUITAR 1(LEAD)
e|-----------------------------
b|--10p0-7p0---7~--------------
g|-----------9-----------------
d|-----------------------------
a|-----------------------------
e|-----------------------------

e|-----------------------------
b|--10p0-7p0--17--15-----------
g|-----------------------------
d|-----------------------------
a|-----------------------------
e|-----------------------------


e|--0--0--0--0----0--0--0--0---0--0--0--
b|--10-10-10-10---10-10-10-10--10-10-10-
g|--11-11-11-11---11-11-11-11--11-11-11-
d|--------------------------------------
a|--------------------------------------
e|--------------------------------------

GUITAR 2
e|--------------------
b|--------------------
g|--66666667777777----
d|--66666667777777----
a|--44400005555555----
e|-------------------- x2
pm..************..*..

e|--------------------
b|--------------------
g|--------------------
d|--4444--4444--444---
a|--4444--4444--444---
e|--2222--2222--222---

e|---------------------
b|---------------------
g|--4444--4444--444----
d|--4444--4444--444----
a|--2222--2222--222----
e|---------------------   {whole thing x2}

=============================================================
OUTRO
=============================================================
GUITAR 1(LEAD)
e|-----------------------------
b|-----------------------------
g|-77777779999991414141414-----
d|-xxxxxxxxxxxxxx-x-x-x-x------
a|-55555557777771212121212-----
e|-----------------------------

e|----------------------------------
b|----------------------------------
g|-141414141414141414121211119-9----
d|-x-x-x-x-x-x-x-x-x-x-x-x-x-x-x----
a|-12121212121212121210109-9-7-7----
e|---------------------------------- { whole thing x4 }

GUITAR 2

e|-----------------------------
b|-----------------------------
g|-7777777---------------------
d|-55555557777779999995555555--
a|-55555557777779999995555555--
e|--------5555557777773333333-- x4

Then as there is mostly just singing and bass--
GUITAR 1(LEAD)
play this whenever u feel like, just strum once and let ring

e|------
b|------
g|-14---
d|-x----
a|-12---
e|------

gtr 2
play a rhythm of these notes - 
e|-------
b|-10----
g|----7--
d|-------
a|-------
e|-------
============
LAST NOTE 
============

GTR 1
e|------
b|------
g|-14---
d|-x----
a|-12---
e|------

GTR 2
e|------
b|-10---
g|-7----
d|------
a|------
e|------

10.Head Club_______________________________________________

INTRO: (After strange drum sounds you get this) By Guitar 1
E----------------------
B----------------------
G--4444/5555-4444/5555-
D--5555/5555-5555/5555-  (2x)
A--2222/3333-2222/3333-
E----------------------

Verse 1: 

Guitar 2
E--------------------------------------
B--------------------------------------
G--4444444-7777777-55555555555555------
D-------------------------------------- (4x) 
A--2222222-5555555-33333333333333------      
E--------------------------------------  

    
                   ****Here starts guitar 1****
				Guitar 1       a   
E--------------------------------------
B--------------------------------------
G------------------4444/5555-4444/5555-
D------------------5555/5555-5555/5555-
A------------------2222/3333-2222/3333-
E--------------------------------------

				PreChorus Both Guitar 1 & 2 does this:
E---------------
B---------------
G---------------
D--2222222------  
A--2222222------
E--0000000------
P.m*******

				Chorus Guitar 1 & 2 together:
E---------------------------------------------
B---------------------------------------------
G-------------555555555-----------------------
D---222222222-555555555-555555555-444444444---  (4x)
A---222222222-333333333-555555555-444444444---
E---000000000-----------333333333-222222222---

				Bridge Guitar 1:
E----------------------------
B----------------------------
G-------------------5--------
D---5-------2-------5-(13x)--  
A---5-(13x)-2-(13x)-3--------
E---3-------0----------------
P.m**********

				Outro By Guitar 1 & 2:
E----------------------------
B----------------------------
G-------------------5--------
D---5-------2-------5-(13x)--  (4x)
A---5-(13x)-2-(13x)-3--------
E---3-------0----------------

				Outro:
E---------------------------------
B---------------------------------
G---------------------------------
D---5------5------5------5------5-
A---5------5------5------5------5-
E---3------3------3------3------3-
===============================================================
Comments