Taking Back Sunday - Slowdance On The Inside Chords & Tabs

 

Slowdance On The Inside Chords & Tabs

Taking Back Sunday Chords & Tabs

Version: 2 Type: Tab 0 ratings
1 star 2 stars 3 stars 4 stars 5 stars
comments

Slowdance On The Inside Tab

Artist: Taking back Sunday
Track: Slowdance on the inside
Album: Where you want to be

Here's the tab for 'Slowdance on the inside' by Taking back Sunday, it's pretty easy to 
so have fun!

Intro/Verse 1:

E -------------------------------------------------------------------|
B -------------------------------------------------------------------|
G -------------------------------------------------------------------|
D ---0--0--0--0--0--0--0--0--0--0--0--0----0-0-0-0-0-0-0-0-0-0-0-----|
A -------------------------------------------------------------------|
E --10-10-10-10-10-10-10-10-10-10-10-10--0-3-3-3-3-3-3-3-3-3-3-3-----|

E --------------------------------------------|
B --------------------------------------------|
G --------------------------------------------|
D ---0--0--0--0--0--0--0--0--0--0--0--0-------|
A --------------------------------------------|
E --10-10-10-10-10-10-10-10-10-10-10-10-------|
[ Tab from: http://www.guitartabs.cc/tabs/t/taking_back_sunday/slowdance_on_the_inside_tab_ver_2.html ]
E --------------------------------------------|
B --------------------------------------------|
G --------------------------------------------|
D ---0--0--0--0--0--0--0--0--0--0--0--0-------|
A --------------------------------------------|
E --12-12-12-12-12-12-12-12-12-12-12-12-------|


Seperator:

E ---------------------------|
B ---------------------------|
G --7~--7~----------7-7------|
D --7~--7~--slide---7-7------|
A --5~--5~----------5-5------|
E ---------------------------|


Chorus:

E ---------------------------------------------------------|
B ---------------------------------------------------------|
G ---------------------------------------------------------|
D --7-7-7-7-7-7-7-7-7-7-7-7-7---5-5-5-5-5-5-5-5-5-5-5-5----|
A --5-5-5-5-5-5-5-5-5-5-5-5-5---5-5-5-5-5-5-5-5-5-5-5-5----|
E ----------------------------0-3-3-3-3-3-3-3-3-3-3-3-3----|

E ---------------------------------------------------------|
B ---------------------------------------------------------|
G ---------------------------------------------------------|
D --9-9-9-9-9-9-9-9-9-9-9-9--5-5-5-5-5-5-5-5-5-5-5-5-------|
A --9-9-9-9-9-9-9-9-9-9-9-9--5-5-5-5-5-5-5-5-5-5-5-5-------|
E --7-7-7-7-7-7-7-7-7-7-7-7--3-3-3-3-3-3-3-3-3-3-3-3-------|


Verse 2 is the same as the 1st but there's also some lead guitar, which I haven't tabbed 
yet!

Then just play the chorus until the end and there you have it...
Comments