Taking Back Sunday - Slowdance On The Inside Chords & Tabs

 

Slowdance On The Inside Chords & Tabs

Taking Back Sunday Chords & Tabs

Version: 1 Type: Tab 0 ratings
1 star 2 stars 3 stars 4 stars 5 stars
comments

Slowdance On The Inside Tab

   
Tuning: Standard (E A D G B E)



Intro and 1st verse
E|-------------------------------------||
B|-------------------------------------||
G|-77777777777777----------------------||
D|-xxxxxxxxxxxxxx---55555555555555-----||
A|-55555555555555---xxxxxxxxxxxxxx-0---||
E|----------------0-33333333333333-----||

Pre-Chorus
E|-------------------------------------||
B|-------pickslide---------------------||
G|-7~~--7-/------7-7-------------------||
D|-7~~--7-/------7-7-------------------||
A|-5~~--5-/------5-5-------------------||
E|-------------------------------------||
[ Tab from: http://www.guitartabs.cc/tabs/t/taking_back_sunday/slowdance_on_the_inside_tab.html ]
Chorus
E|-------------------------------------------------------------||
B|-------------------------------------------------------------||
G|---------------------------------4444444444444---------------||
D|-444444444444444-555555555555555-4444444444444-5555555555555-||
A|-555555555555555-555555555555555-2222222222222-5555555555555-||
E|-----------------333333333333333---------------3333333333333-||

2nd Verse
E|----------------------------||
B|-------------7~----7~-5~----||
G|-6h7p6~~-6h7---6h7----------||
D|----------------------------||
A|----------------------------||
E|----------------------------||

Break
E|------------------||
B|------------------||
G|------------------||
D|-55-55-55---------||
A|-55-55-55---------||
E|-33-33-33---------||

Order:
Intro and Verse x
Pre-Chorus x1
Chorus x2
Verse x2 
Pre-Chorus x1
Chorus x4
Break x1
Chorus x2
End on 
E|-----------||
B|-----------||
G|-7~~~~~~---||
D|-7~~~~~~---||
A|-5~~~~~~---||
E|-----------||
Comments