Taking Back Sunday - New American Classic Chords & Tabs

 

New American Classic Chords & Tabs

Taking Back Sunday Chords & Tabs

Version: 6 Type: Tab 0 ratings
1 star 2 stars 3 stars 4 stars 5 stars
comments

New American Classic Tab

   
----------------------------------------------------------------------------
              	     New American Classic - Taking Back Sunday
----------------------------------------------------------------------------
Tabbed by: MasterXaero*
Email: MasterXaero8@hotmail.com

Tuning: EADGBe (standard)

This is an acoustic song of Taking Back Sunday's latest album, "Where You Want To Be."
The song IS fingerpicked, but it is possible to sing and play at the same time. I use two
fingers to play it... my thumb and my index finger, and it seems to work out pretty well.


Intro/Verse

e|-------------2-------------|
B|-0---------------3-5p0---3-|
G|-------3-------0-------5---|
D|---0h4---0---0-------------|
A|-----------0-------3-------|
E|-3-------------------------|

Chorus:

e|-----------3---3-|            
B|-3-5/7-7-0-3-0-3-|
G|-0-0/0-0-0-0-0-0-| x2, then: 
D|-0-5/7-7-2-0-2-0-|
A|-3-3/5-5-2-2-2-2-|
E|-----------3-0-3-|

e|-----------------|            
B|-3-5/7-7-0-3-3-5-|
G|-0-0/0-0-0-0-0-0-|  
D|-0-5/7-7-2-0-0-0-| 
A|-3-3/5-5-2-2-3-5-|                          
E|-----------------|    

e|-----------------|            
B|-0-3-3-5-0-3-3-5-|
G|-0-0-0-0-0-0-0-0-| Play this after the top two parts in every chorus 
D|-2-0-0-0-2-0-0-0-| EXCEPT for the first one.
A|-2-2-3-5-2-2-3-5-|                          
E|-----------------|                        

Solo:
[ Tab from: http://www.guitartabs.cc/tabs/t/taking_back_sunday/new_american_classic_tab_ver_6.html ]
e|-----------------------------------------------------------------------|
B|-3-3-3-3-5-----7-3-3-0h3-3-3-5-----0h3p0-----0h3p0-5-----5p3h5p3h5p3-3-|
G|-----------------------------------------------------------------------|
D|-----------------------------------------------------------------------|
A|-----------------------------------------------------------------------|
E|-3-3-3-3-3-3-3-7-3-3-3---3-3-3-3-3-3-----3-3-3-----3-3-3-3-----------3-|

e|----------|
B|-7\-3-3---|
G|----------| x8
D|----------|
A|----------|
E|-7\-3-3-3-|          from this part forward other instruments come
                       in, but this is the guitar part:

e|-3-3-3h5p3-3-3-3--3-2-0-2-0-0-0-3/5-5/7-7-7-7-7-7-7h8-8-8-8p7-7-7-|
B|------------------------------------------------------------------|
G|------------------------------------------------------------------|
D|------------------------------------------------------------------|
A|------------------------------------------------------------------|
E|------------------------------------------------------------------|

e|-8p7-8p7-8p7-8p7-8p7-8p7-8p7-8p7-|
B|---------------------------------|
G|---------------------------------|
D|---------------------------------|
A|---------------------------------|
E|---------------------------------|

e|---7-9---7-9---7-9---7-9---7-9---7-9---7-9---7-9-|
B|-8-----8-----8-----8-----8-----8-----8-----8-----|
G|-------------------------------------------------|
D|-------------------------------------------------|
A|-------------------------------------------------|
E|-------------------------------------------------|

Ending (after the last chorus):

e|-------------2--------------------------2--------------------|
B|-0---------------3-5p0---3--0---------------3-5p0---3---0-12+|
G|-------3-------0-------5----------3-------0-------5---5------|
D|---0h4---0---0----------------0h4---0---0--------------------|
A|-----------0-------3------------------0-------3--------------|
E|-3--------------------------3--------------------------------|


| /  slide up
| \  slide down
| h  hammer-on
| p  pull-off
| ~  vibrato
| +  harmonic
| x  Mute note
============================================================================
Comments