Taking Back Sunday - New American Classic Chords & Tabs

 

New American Classic Chords & Tabs

Taking Back Sunday Chords & Tabs

Version: 1 Type: Tab 7 ratings
1 star 2 stars 3 stars 4 stars 5 stars
comments

New American Classic Tab

“New American Classic”
Taking Back Sunday
Tabbed by Alex Giovanelli

This is a great song. I just got back from their concert and they used a chorus pedal
on the acoustic. It sounded amazing. The solo is not perfect so feel free to add to it.
My e-mail is Zeppelin1006@aol.com if you have any questions.  


Intro:

---------------------------------------------------------------------------------------------------------
---------------------------------3----------------7-------------------5------0--------------3----------
----------4----------------------------0------------------------7--------------------5-----------4-----
-----------------------0----5---------------0------------5---------------------------------------------
---------------------------------------------------------------------------------------------------------
---------------------------------------------------------------------------------------------------------

---------------------------------------------------------------------------------------------------------
---------------------------------3----------------7-------------------5------0--------------3----------
----------4----------------------------0------------------------7--------------------5----------------
-----------------------0----5---------------0------------5---------------------------------------------
---------------------------------------------------------------------------------------------------------
---------------------------------------------------------------------------------------------------------


Verse 1: Same pattern as intro 

---------------------------------------------------------------------------------------------------------
---------------------------------3----------------7-------------------5------0--------------3----------
----------4----------------------------0------------------------7--------------------5-----------4-----
-----------------------0----5---------------0------------5---------------------------------------------
---------------------------------------------------------------------------------------------------------
---------------------------------------------------------------------------------------------------------
We’ve got to get better say its all in your head			

---------------------------------------------------------------------------------------------------------
---------------------------------3----------------7-------------------5------0--------------3----------
----------4----------------------------0------------------------7--------------------5-----------4-----
-----------------------0----5---------------0------------5---------------------------------------------
---------------------------------------------------------------------------------------------------------
--------------------------------------------------------------------------------------------------------- 
We could live through these letters or forget it all together

---------------------------------------------------------------------------------------------------------
---------------------------------3----------------7-------------------5------0--------------3----------
----------4----------------------------0------------------------7--------------------5-----------4-----
-----------------------0----5---------------0------------5---------------------------------------------
---------------------------------------------------------------------------------------------------------
---------------------------------------------------------------------------------------------------------
See the months they don’t matter it’s the days I can’t take

---------------------------------------------------------------------------------------------------------
---------------------------------3----------------7-------------------5------0--------------3----------
----------4----------------------------0------------------------7--------------------5-----------4-----
-----------------------0----5---------------0------------5---------------------------------------------
---------------------------------------------------------------------------------------------------------
---------------------------------------------------------------------------------------------------------
When the hours move to minutes	and I’m seconds away



Chorus: (strum)
------------------------------------------------------------------------------------------------------
------------------------------------------------------------------------------------------------------
---5--------------------------------7---------------------------9------------------------------------
---5--------------------------------7---------------------------9--------------------5---------------
---3--------------------------------5---------------------------7--------------------5---------------
---------------------------------------------------------------------------------------3--------------
    Just ask the question come untie the knot say you won’t care say you won’t care

------------------------------------------------------------------------------------------------------
------------------------------------------------------------------------------------------------------
---5--------------------------------7---------------------------9------------------------------------
---5--------------------------------7---------------------------9--------------------5---------------
---3--------------------------------5---------------------------7--------------------5---------------
---------------------------------------------------------------------------------------3--------------
    Retrace the steps as if we forgot say you won’t care say you won’t care

-------------------------------------------------------------------------------------------------------
-------------------------------------------------------------------------------------------------------
---5--------------------------------7----------------------------------------9----7----5------------
---5--------------------------------7----------------------------------------9----7----5------------
---3--------------------------------5----------------------------------------7----5----3------------
-------------------------------------------------------------------------------------------------------
Try to avoid it but there’s not a doubt and there’s and there’s one thing I can do nothing about 


(Repeat intro)
---------------------------------------------------------------------------------------------------------
---------------------------------3----------------7-------------------5------0--------------3----------
----------4----------------------------0------------------------7--------------------5-----------4-----
-----------------------0----5---------------0------------5---------------------------------------------
---------------------------------------------------------------------------------------------------------
---------------------------------------------------------------------------------------------------------
[ Tab from: http://www.guitartabs.cc/tabs/t/taking_back_sunday/new_american_classic_tab.html ]
---------------------------------------------------------------------------------------------------------
---------------------------------3----------------7-------------------5------0--------------3----------
----------4----------------------------0------------------------7--------------------5----------------
-----------------------0----5---------------0------------5---------------------------------------------
---------------------------------------------------------------------------------------------------------
---------------------------------------------------------------------------------------------------------


Verse 2 (same pattern as verse 1)

---------------------------------------------------------------------------------------------------------
---------------------------------3----------------7-------------------5------0--------------3----------
----------4----------------------------0------------------------7--------------------5-----------4-----
-----------------------0----5---------------0------------5---------------------------------------------
---------------------------------------------------------------------------------------------------------
---------------------------------------------------------------------------------------------------------
When all that we need is just a reaction			

--------------------------------------------------------------------I-------------------------------------
---------------------------------3----------------7-------------------5------0--------------3----------
----------4----------------------------0------------------------7--------------------5-----------4-----
-----------------------0----5---------------0------------5---------------------------------------------
---------------------------------------------------------------------------------------------------------
--------------------------------------------------------------------------------------------------------- 
Its too much to ask for when there’s no attraction anymore

---------------------------------------------------------------------------------------------------------
---------------------------------3----------------7-------------------5------0--------------3----------
----------4----------------------------0------------------------7--------------------5-----------4-----
-----------------------0----5---------------0------------5---------------------------------------------
---------------------------------------------------------------------------------------------------------
---------------------------------------------------------------------------------------------------------
If chasing our dreams	is just a distraction

---------------------------------------------------------------------------------------------------------
---------------------------------3----------------7-------------------5------0--------------3----------
----------4----------------------------0------------------------7--------------------5-----------------
-----------------------0----5---------------0------------5---------------------------------------------
---------------------------------------------------------------------------------------------------------
---------------------------------------------------------------------------------------------------------
I want to remember but I know that I can’t get back there anymore


Chorus: (strum)
------------------------------------------------------------------------------------------------------
------------------------------------------------------------------------------------------------------
---5--------------------------------7---------------------------9------------------------------------
---5--------------------------------7---------------------------9--------------------5---------------
---3--------------------------------5---------------------------7--------------------5---------------
---------------------------------------------------------------------------------------3--------------
    Just ask the question come untie the knot say you won’t care say you won’t care

------------------------------------------------------------------------------------------------------
------------------------------------------------------------------------------------------------------
---5--------------------------------7---------------------------9------------------------------------
---5--------------------------------7---------------------------9--------------------5---------------
---3--------------------------------5---------------------------7--------------------5---------------
---------------------------------------------------------------------------------------3--------------
    Retrace the steps as if we forgot say you won’t care say you won’t care

-------------------------------------------------------------------------------------------------------
-------------------------------------------------------------------------------------------------------
---5--------------------------------7----------------------------------------9----7----5------------
---5--------------------------------7----------------------------------------9----7----5------------
---3--------------------------------5----------------------------------------7----5----3------------
-------------------------------------------------------------------------------------------------------
Try to avoid it but there’s not a doubt and there’s and there’s one thing I can do nothing 
------------------------------------------------------------------------------------------------------
------------------------------------------------------------------------------------------------------
--------------9-----7----5--------------------------9----7----5------------------------------------
--------------9-----7----5--------------------------9----7----5------------------------------------
--------------7-----5----3--------------------------7----5----3------------------------------------
------------------------------------------------------------------------------------------------------
and there’s one thing I can do nothing there’s one thing I can do nothing about 


Solo:
-------------------------------------------------------------------------------------------------
---------------------3-------------------3------------------3---------------------3------------
-------------------------------------------------------------------------------------------------
---------4----5--------------4----5--------------4----5-------------4----5--------------------
-------------------------------------------------------------------------------------------------
-------------------------------------------------------------------------------------------------

-------------------------------------------------------------------------3----3---3---5---3---
---------------------3-------------------3------------------3-----------3----3---3---5---3---
-------------------------------------------------------------------------------------------------
---------4----5--------------4----5--------------4----5-------------------------------------
-------------------------------------------------------------------------------------------------
-------------------------------------------------------------------------------------------------


----------------10-----------10-------------10--------------10------------------------------
------7---8----------7---8----------7---8-----------7---8------------------------------------
-------------------------------------------------------------------------------------------------
-------------------------------------------------------------------------------------------------
-------------------------------------------------------------------------------------------------
-------------------------------------------------------------------------------------------------

Repeat chorus and then outro (same as intro)
Comments