Taking Back Sunday - Lost And Found My Heart On Her Sweater Chords & Tabs

 

Lost And Found My Heart On Her Sweater Chords & Tabs

Taking Back Sunday Chords & Tabs

Version: 1 Type: Tab 0 ratings
1 star 2 stars 3 stars 4 stars 5 stars
comments

Lost And Found My Heart On Her Sweater Tab

-----------------------------------------------------------------------------
I downloaded this song of the old Taking back sunday cd demo when there was other
vocal...this song is cool but i like the actual taking back sunday.

-------------------------------------------------------------------------------
Tabbed by:Mario Oscar (omertoscar)
Email: x17_89@hotmail.com

Tuning: Standard

 Intro gtr.2:    Intro gtr.1
e|--------------/------------------------------------------------------------|
B|-0--0--0--0---/------------------------------------------------------------|
G|--5--5--5--5--/-55-5-55-5--------------------------------------------------|
D|---5--5--5--5-/-55-5-55-5-77-7-77-7----------------------------------------|
A|--------------/-33-3-33-3-77-7-77-7----------------------------------------|
E|--------------/-----------55-5-55-5----------------------------------------|

  Verses gtr.2:    Verses gtr.1
e|-14----14------/-----------------------------------------------------------|
B|---12----12----/-----------------------------------------------------------|
G|-----12----12--/-55-xxxx-5-------------------------------------------------|
D|---------------/-55-xxxx-5-77-xxxx-7---------------------------------------|
A|---------------/-33-xxxx-3-77-xxxx-7---------------------------------------|
E|---------------/-----------55-xxxx-5---------------------------------------|

  Pre-chorus" but if i never lost you..."
e|---------------------------------------------------------------------------|
B|---------------------------------------------------------------------------|
G|---------------------------------------------------------------------------|
D|-5555555-77777777----------------------------------------------------------|
A|-5555555-77777777----------------------------------------------------------|
E|-3333333-55555555----------------------------------------------------------|
[ Tab from: http://www.guitartabs.cc/tabs/t/taking_back_sunday/lost_and_found_my_heart_on_her_sweater_tab.html ]
 Chorus x4                          Then: Verse
e|-----------------------------------------|       Pre-chorus
B|-----------------------------------------|       Chorus
G|-555555555555555-------------------------|
D|-555555555555555-777777777777777---------|
A|-333333333333333-777777777777777---------|
E|-----------------555555555555555---------|

 Bridge(acoustic guitar) x2  :
e|-----1-0-------1-0----1-0-------3-1-0--------------------------------------|
B|-0-1----1-0-1-----0-1----1-0-1---------------------------------------------|
G|----0---------0------0---------0-------------------------------------------|
D|---------------------------------------------------------------------------|
A|-3----------------0--------------------------------------------------------|
E|---------------------------3-----------------------------------------------|

 Coda Acoustic gtr:
e|---3--3--3--3--3--3--3--3--3-5--5--5--5--5--3--3--3--3--3------------------|
B|-01-01-01-01-01-01-01-01-01---3--3--3--3--3--3--3--3--3--3-----------------|
G|-------------------------------5--5--5--5--5--5--5--5--5--5----------------|
D|---------------------------------------------------------------------------|
A|---------------------------------------------------------------------------|
E|---------------------------------------------------------------------------|


e|-7--7--7--7--7--8--8--8--8--8--8--8--8--8--8--8--8--8--8--8--8--8--8-------|
B|--5--5--5--5--5--6--6--6--6--6--6--6--6--6--6--6--6--6--6--6--6--6--6------|
G|---5--5--5--5--5--6--6--6--6--6--6--6--6--6--6--6--6--6--6--6--6--6--6-----|
D|---------------------------------------------------------------------------|
A|---------------------------------------------------------------------------|
E|---------------------------------------------------------------------------|

 Coda (electric gtr)              2:52 Each note x 16:
e|-------------------------------/----------------------------------|
B|-------------------------------/----------------------------------|
G|--------------5555555555555555-/-----5--------------------------5-|
D|-5------------5555555555555555-/-7-5-5--------------------------5-| end.
A|-5-(let ring)-3333333333333333-/-7-5-3--------------------------3-|
E|-3-----------------------------/-5-3------------------------------|

Well it is all.
Si algun Mexicano esta leyendo esto ,perdon por no ponerlo en espaņol pero la mayoria
de los gringos no lo entiende y ellos oyen mas estos grupos.

pero viva mexico!!!
Comments