Taking Back Sunday - Error Operator Chords & Tabs

 

Error Operator Chords & Tabs

Taking Back Sunday Chords & Tabs

Version: 1 Type: Bass Tab

Error Operator Bass Tab

Artist: Taking Back Sunday
Song: Error: Operator
Album: Louder Now

This song is awesome, I didn't see any other tabs, hope this is correct!
ENJOY!


Intro Part 1
Gb-------------------------------|
Db------99999--------1616161212--|
Ab--777-------101010-------------|
Eb-------------------------------|

Part 2
Gb----------------------|
Db------99999--------9--|
Ab--777-------101010----|
Eb----------------------|

Verse Part 1
Gb-----------------------|
Db-----------------------|
Ab------22222-----55555--|
Eb--000-------333--------|
Part 2
Gb------------------|
Db------------------|
Ab------------------|
Eb----000000000-----|

Gb------------------|
Db------------------|
Ab------5----5-7----|
Eb--000---00-----0--|
[ Tab from: http://www.guitartabs.cc/tabs/t/taking_back_sunday/error_operator_btab.html ]
Chorus
Gb-------------------------------------|
Db-------------------------------------|
Ab--333333333--------5555555555555555--|
Eb-----------33333333------------------|

Breakdown
Gb------------------|
Db------------------|
Ab------5----5-7----|Something like that anyway, listen for timing
Eb--000---00-----0--|

Interlude
Gb---------------------------------------|
Db---------------------------------------|
Ab--77777777-55555555-44444444-22222222--|
Eb---------------------------------------|

Order
Intro Part 1 X3
Intro Part 2 X1
Verse Part 1 X4
Chorus X2
Verse Part 1 X4
Verse Part 2 played until..
Chorus X4
Verse Part 2 (played until last "murder, oh muder..")
Interlude X4
Chorus X4
Breakdown X2

End on
Gb-----|
Db-----|
Ab-----|
Eb--0--|