Taking Back Sunday - Eleven Chords & Tabs

 

Eleven Chords & Tabs

Taking Back Sunday Chords & Tabs

Version: 1 Type: Tab 0 ratings
1 star 2 stars 3 stars 4 stars 5 stars
comments

Eleven Tab

   
Tabbed by:xThe Usedx
Tuning:EADGBE

INTRO/VERSE

Guitar 1:
e|------*7--------------------------------------------------|
B|---------------*7-----------------------------------------|
G|------------------------*5---------*7---------------------| x6
D|----------------------------------------------------------|
A|----------------------------------------------------------|
E|----------------------------------------------------------|

Optional (Without Harmonics)
e|------19--------------------------------------------------|
B|---------------19--------20-------------------------------|
G|-----------------------------------19---------------------| x6
D|----------------------------------------------------------|
A|----------------------------------------------------------|
E|----------------------------------------------------------|

Guitar 2: Come in after guitar 1 plays two bars

e|------------------------------------------------------------ |
B|------------------------------------------------------------ |
G|-------0-----------0----------0------------0---------------- | x3
D|-----9---9-------0---0------0---0--------0---0-------------- |
A|--10------10---9-------9--7-------7----9-------9------------ |
E|------------------------------------------------------------ |

e|----------------------------------------------------------- |
B|----------------------------------------------------------- |
G|-------0-----------0----------0------------0~-------------- |
D|-----9---9-------0---0------0---0--------0----------------- |
A|--10------10---9-------9--7-------7----5------------------- |
E|----------------------------------------------------------- |

PRE CHORUS

Guitar 1: Play softly

e|----------------------------------------------------------|
B|-----------15-15-12-12-12---------------15-15-12-12-12----|
G|--11/12-12--------------------11/12-12--------------------| x3
D|----------------------------------------------------------|
A|----------------------------------------------------------|
E|----------------------------------------------------------|

e|----------------------------------------------------------|
B|-----------15-15-12-12-12---------------------------------|
G|--11/12-12----------------------11~-----------------------|
D|----------------------------------------------------------|
A|----------------------------------------------------------|
E|----------------------------------------------------------|

Guitar 2:

e|---------------------------------------------------------------- |
B|---------------------------------------------------------------- |
G|--------0----------0------------0-----------0-------------)----- |
D|-----0-----0-----0-----0-----0-----0-----0-----0----------)   -- |
A|--3-----------3-----------3-----------3-------------------)   -- |
E|----------------------------------------------------------)   -- |
                                                            )    |--x2
e|----------------------------------------------------------)   -- |
B|----------------------------------------------------------)   -- |
G|--------0-----------0-----------0-----------0-------------)   -- |
D|-----4-----4-----4-----4-----4-----4-----4-----4----------)----- |
A|--5-----------5-----------5-----------5------------------------- |
E|---------------------------------------------------------------- |

INTRO/VERSE

Guitar 1:

e|------*7--------------------------------------------------|
B|---------------*7-----------------------------------------|
G|------------------------*5---------*7---------------------| x2
D|----------------------------------------------------------|
A|----------------------------------------------------------|
E|----------------------------------------------------------|

Optional (Without Harmonics)
e|------19--------------------------------------------------|
B|---------------19--------20-------------------------------|
G|-----------------------------------19---------------------| x2
D|----------------------------------------------------------|
A|----------------------------------------------------------|
E|----------------------------------------------------------|

Guitar 2:

e|----------------------------------------------------------|
B|----------------------------------------------------------|
G|-------0-----------0----------0------------0--------------|
D|-----9---9-------0---0------0---0--------0---0------------|
A|--10------10---9-------9--7-------7----9-------9----------|
E|----------------------------------------------------------|

e|----------------------------------------------------------|
B|----------------------------------------------------------|
G|-------0-----------0----------0------------0~-------------|
D|-----9---9-------0---0------0---0--------0----------------|
A|--10------10---9-------9--7-------7----5------------------|
E|----------------------------------------------------------|

PRE CHORUS

Guitar 1: Play softly

e|----------------------------------------------------------|
B|-----------15-15-12-12-12---------------15-15-12-12-12----|
G|--11/12-12--------------------11/12-12--------------------| x3
D|----------------------------------------------------------|
A|----------------------------------------------------------|
E|----------------------------------------------------------|

e|----------------------------------------------------------|
B|------------15-15-12-12-12--------------------------------|
G|---11/12-12----------------------11~----------------------|
D|----------------------------------------------------------|
A|----------------------------------------------------------|
E|----------------------------------------------------------|

Guitar 2:

e|-------------------------------------------------------------- |
B|-------------------------------------------------------------- |
G|--------0----------0------------0-----------0-------------)--- |
D|-----0-----0-----0-----0-----0-----0-----0-----0----------) -- |
A|--3-----------3-----------3-----------3-------------------) -- |
E|----------------------------------------------------------) -- |
                                                            )  |--x2
e|----------------------------------------------------------) -- |
B|----------------------------------------------------------) -- |
G|--------0-----------0-----------0-----------0-------------) -- |
D|-----4-----4-----4-----4-----4-----4-----4-----4----------)--- |
A|--5-----------5-----------5-----------5----------------------- |
E|-------------------------------------------------------------- |

CHORUS 1

Guitar 1:

e|-----------------------------------------------------------------|
B|-----------------------------------------------------------------|
G|-5-5-5-5-5-5-5-5-4-4-4-4-4-4-4-4-5-5-5-5-5-5-5-5-4-4-4-4-4-4-4-4-|x2
D|-x-x-x-x-x-x-x-x-x-x-x-x-x-x-x-x-x-x-x-x-x-x-x-x-x-x-x-x-x-x-x-x-|
A|-3-3-3-3-3-3-3-3-2-2-2-2-2-2-2-2-3-3-3-3-3-3-3-3-2-2-2-2-2-2-2-2-|
E|-----------------------------------------------------------------|

Guitar 2:

e|-----------------------------------------------------------------|
B|-----------------------------------------------------------------|
G|-----------------------------------------------------------------|x2
D|-5-5-5-5-5-5-5-5-4-4-4-4-4-4-4 4-2-2-2-2-2-2-2-2-4-4-4-4-4-4-4-4-|
A|-5-5-5-5-5-5-5-5-4-4-4-4-4-4-4-4-2-2-2-2-2-2-2-2-4-4-4-4-4-4-4-4-|
E|-3-3-3-3-3-3-3-3-2-2-2-2-2-2-2-2-0-0-0-0-0-0-0-0-2-2-2-2-2-2-2-2-|

CHORUS 2

Both Guitars
[ Tab from: http://www.guitartabs.cc/tabs/t/taking_back_sunday/eleven_tab.html ]
       "Cause baby I would, and baby I could"
e|------------------------------------------------------------------|
B|------------------------------------------------------------------|
G|-5-5-5-5-5-5-5-5-5-5-5-5-5-5-5-5-7-7-7-7-7-7-7-7-7-7-7-7-7-7-7-7--|x2
D|-5-5-5-5-5-5-5-5-5-5-5-5-5-5-5-5-7-7-7-7-7-7-7-7-7-7-7-7-7-7-7-7--|
A|-3-3-3-3-3-3-3-3-3-3-3-3-3-3-3-3-5-5-5-5-5-5-5-5-5-5-5-5-5-5-5-5--|
E|------------------------------------------------------------------|

CHORUS 1

Guitar 1:

e|-----------------------------------------------------------------|
B|-----------------------------------------------------------------|
G|-5-5-5-5-5-5-5-5-4-4-4-4-4-4-4-4-5-5-5-5-5-5-5-5-4-4-4-4-4-4-4-4-|x2
D|-x-x-x-x-x-x-x-x-x-x-x-x-x-x-x-x-x-x-x-x-x-x-x-x-x-x-x-x-x-x-x-x-|
A|-3-3-3-3-3-3-3-3-2-2-2-2-2-2-2-2-3-3-3-3-3-3-3-3-2-2-2-2-2-2-2-2-|
E|-----------------------------------------------------------------|

Guitar 2:

e|-----------------------------------------------------------------|
B|-----------------------------------------------------------------|
G|-----------------------------------------------------------------|x2
D|-5-5-5-5-5-5-5-5-4-4-4-4-4-4-4 4-2-2-2-2-2-2-2-2-4-4-4-4-4-4-4-4-|
A|-5-5-5-5-5-5-5-5-4-4-4-4-4-4-4-4-2-2-2-2-2-2-2-2-4-4-4-4-4-4-4-4-|
E|-3-3-3-3-3-3-3-3-2-2-2-2-2-2-2-2-0-0-0-0-0-0-0-0-2-2-2-2-2-2-2-2-|

CHORUS 2

Both Guitars

       "Cause baby I would, and baby I could"
e|------------------------------------------------------------------|
B|------------------------------------------------------------------|
G|-5-5-5-5-5-5-5-5-5-5-5-5-5-5-5-5-7-7-7-7-7-7-7-7-7-7-7-7-7-7-7-7--|x2
D|-5-5-5-5-5-5-5-5-5-5-5-5-5-5-5-5-7-7-7-7-7-7-7-7-7-7-7-7-7-7-7-7--|
A|-3-3-3-3-3-3-3-3-3-3-3-3-3-3-3-3-5-5-5-5-5-5-5-5-5-5-5-5-5-5-5-5--|
E|------------------------------------------------------------------|

INTERLUDE 1

Guitar 1: Alone, awkward timing, it's about 11 bars(bar=4 beats)

e|----------------------------------------------------------|
B|--15--12-----15--12------15--12-----15--12-----15--12-----|
G|---------12---------12----------12---------12---------12--|x2
D|----------------------------------------------------------|
A|----------------------------------------------------------|
E|----------------------------------------------------------|

e|----------------------------------------------------------|
B|--15\12~--------------------------------------------------|
G|----------------------------------------------------------|
D|----------------------------------------------------------|
A|----------------------------------------------------------|
E|----------------------------------------------------------|

Interlude 2

Guitar 1:

e|----------------------------------------------------------|
B|-----------15-15-12-12-12---------------15-15-12-12-12----|
G|--11/12-12--------------------11/12-12--------------------| x3
D|----------------------------------------------------------|
A|----------------------------------------------------------|
E|----------------------------------------------------------|

e|----------------------------------------------------------|
B|-----------15-15-12-12-12---------------------------------|
G|--11/12-12----------------------11~-----------------------|
D|----------------------------------------------------------|
A|----------------------------------------------------------|
E|----------------------------------------------------------|

Guitar 2: Listen to song for timing

e|----------------------------------------------------------|
B|----------------------------------------------------------|
G|----------------------------------------------------------|x3
D|----------------------------------------------------------|
A|---------2/3~---------3/5~---------5/7~---------7/9~------|
E|----------------------------------------------------------|

e|--------------------------------------|
B|--------------------------------------|
G|--------------------------------------|
D|--5-5-5-5-5-5-5-5-5-5-5-5-5-5-5-5-----|
A|--3-3-3-3-3-3-3-3-3-3-3-3-3-3-3-3-----|
E|--3-3-3-3-3-3-3-3-3-3-3-3-3-3-3-3-----|
    * * * * * * * * * * * *

CHORUS

Guitar 1:

e|----------------------------------------------------------|
B|--15----15----15----15----12----12----12----12------------|
G|-----12----12----12----12----12----12----12----12---------|x4
D|----------------------------------------------------------|
A|----------------------------------------------------------|
E|----------------------------------------------------------|

e|---12----12----12----12----14-----14----14------14--------|
B|----------------------------------------------------------|
G|-----12----12----12----12----12-----12-----12-----12------|
D|----------------------------------------------------------|
A|----------------------------------------------------------|
E|----------------------------------------------------------|

e|---15----15----15----15-----------------------------------|
B|---------------------------15-----15-----15-----15--------|
G|-----12----12----12----12----12-----12-----12-----12------|
D|----------------------------------------------------------|
A|----------------------------------------------------------|
E|----------------------------------------------------------|

e|----------------------------------------------------------|
B|--12----12----12----12----12----12----12----12------------|
G|-----12----12----12----12----12----12----12----12---------|x2
D|----------------------------------------------------------|
A|----------------------------------------------------------|
E|----------------------------------------------------------|

Guitar 2:

e|-----------------------------------------------------------------|
B|-----------------------------------------------------------------|
G|-5-5-5-5-5-5-5-5-5-5-5-5-5-5-5-5-7-7-7-7-7-7-7-7-7-7-7-7-7-7-7-7-|x8
D|-5-5-5-5-5-5-5-5-5-5-5-5-5-5-5-5-7-7-7-7-7-7-7-7-7-7-7-7-7-7-7-7-|
A|-3-3-3-3-3-3-3-3-3-3-3-3-3-3-3-3-5-5-5-5-5-5-5-5-5-5-5-5-5-5-5-5-|
E|-----------------------------------------------------------------|

CHORUS 3

Guitar 1:

e|-----------------------------------------------------------------|
B|-----------------------------------------------------------------|
G|-5-5-5-5-5-5-5-5-4-4-4-7-7-7-5-5-----------------9-9-9-7-7-7-5-5-|x2
D|-x-x-x-x-x-x-x-x-x-x-x-x-x-x-x-x-7-7-7-7-7-7-7-7-x-x-x-x-x-x-x-x-|
A|-3-3-3-3-3-3-3-3-2-2-2-5-5-5-3-3-x-x-x-x-x-x-x-x-7-7-7-5-5-5-3-3-|
E|---------------------------------5-5-5-5-5-5-5-5-----------------|

Guitar 2:

Rest x1

then play
e|-----------------------------------------------------------------|
B|-----------------------------------------------------------------|
G|-----------------------------------------------------------------|
D|---------------------------------5-5-5-5-5-5-5-5-5-5-5-5-5-5-5-5-|
A|---------------------------------3-3-3-3-3-3-3-3-3-3-3-3-3-3-3-3-|
E|---------------------------------3-3-3-3-3-3-3-3-3-3-3-3-3-3-3-3-|
                                   * * * * * * * * * * * *

Both Guitars

e|-----------------------------------------------------------------|
B|-----------------------------------------------------------------|
G|-5-5-5-5-5-5-5-5-4-4-4-7-7-7-5-5-----------------9-9-9-7-7-7-5-5-|x2
D|-3-3-3-3-3-3-3-3-2-2-2-5-5-5-3-3-7-7-7-7-7-7-7-7-9-9-9-7-7-7-5-5-|
A|-3-3-3-3-3-3-3-3-2-2-2-5-5-5-3-3-7-7-7-7-7-7-7-7-7-7-7-5-5-5-3-3-|
E|---------------------------------5-5-5-5-5-5-5-5-----------------|

e|------------|
B|------------|
G|-5~---------|
D|-3~---------|
A|-3~---------|
E|------------|
Comments