Taking Back Sunday - Cute Without The E Chords & Tabs

 

Cute Without The E Chords & Tabs

Taking Back Sunday Chords & Tabs

Version: 8 Type: Tab 0 ratings
1 star 2 stars 3 stars 4 stars 5 stars
comments

Cute Without The E Tab

   
Taking Back Sunday - Tell All Your Friends
"Cute Without The 'E' (Cut From The Team)"
Tablature Provided By - Yozoniac
email - Yosswell@hotmail.com
AIM - Yozoniac
(This TAB was contributed in 2004)

::Preface:: One of the most recent bands I started listening to.
I fell in love with the CD the first time I heard it and I'm 
sure you have as well. I first heard of the band through Fuse 
and the video came on. Video freaked me out a but it was cool
ok I am going to stop wasting your time now. If your like me 
your not even reading this oh well...




Guitar 1 - Standard / Low to High (E A D G B E)
Guitar 2 - STandard / Low to High (E A D G B E)


::Intro::

Guitar 1 : Clean

|---------------|----------------|
|-0---0-------0-|-0---0-------0--|
|-4---4---4---4-|-4---4---4---4--|
|-2---2---2---1-|-2---2---2---1--|
|-4---0---2---2-|-4---0---2---2--|
|---------------|----------------|

::Verse 1::

>>Repeat Verse 6x<<

Guitar 1 : Distortion

|-----------|------------|------------|------------|
|-----------|------------|------------|------------|
|-66666666--|--22222222--|--44444444--|------------|
|-66666666--|--22222222--|--44444444--|--11111111--|
|-44444444--|--00000000--|--22222222--|--22222222--|
|-----------|------------|------------|------------|
PM--------     --------     --------     --------
Guitar 2 : Distortion

|-----------------|-----------------|-----------------|-----------------|
|-----------------|-----------------|-----------------|-----------------|
|---------4-4---4-|---------4-4---4-|---------4-4---4-|-----------------|
|-----2-------2---|-----2-------2---|-----2-------2---|-----1---2-1---1-|
|-4-4---4---------|-0-0---0---------|-2-2---2---------|-2-2---2-----2---|
|-----------------|-----------------|-----------------|-----------------|
PM- - - -           - - - -           - - - -           - - - - 

::Chorus::

>>Repeat Chorus 4x<<

Guitar 1 : Distortion
Guitar 2 : Distortion

|----------------------------------------|
|----------------------------------------|
|-66666666------------99999999-----------|
|-66666666--99999999--99999999--77777777-|
|-44444444--99999999--77777777--77777777-|
|-----------77777777------------55555555-|

::Verse 2::

>>Repeat Verse 6x<<

Guitar 1 : Distortion

|-----------|------------|------------|------------|
|-----------|------------|------------|------------|
|-66666666--|--22222222--|--44444444--|------------|
|-66666666--|--22222222--|--44444444--|--11111111--|
|-44444444--|--00000000--|--22222222--|--22222222--|
|-----------|------------|------------|------------|
PM--------     --------     --------     --------
Guitar 2 : Distortion
[ Tab from: http://www.guitartabs.cc/tabs/t/taking_back_sunday/cute_without_the_e_tab_ver_8.html ]
|-----------------|-----------------|-----------------|-----------------|
|-----------------|-----------------|-----------------|-----------------|
|---------4-4---4-|---------4-4---4-|---------4-4---4-|-----------------|
|-----2-------2---|-----2-------2---|-----2-------2---|-----1---2-1---1-|
|-4-4---4---------|-0-0---0---------|-2-2---2---------|-2-2---2-----2---|
|-----------------|-----------------|-----------------|-----------------|
PM- - - -           - - - -           - - - -           - - - - 

::Chorus::

>>Repeat 2x<<

Guitar 1 : Distortion
Guitar 2 : Distortion

|----------------------------------------|
|----------------------------------------|
|-66666666------------99999999-----------|
|-66666666--99999999--99999999--77777777-|
|-44444444--99999999--77777777--77777777-|
|-----------77777777------------55555555-|

>>Guitar 1 Repeat 2x<<

GUitar 1 : Distortion

|----------------------------------------|
|----------------------------------------|
|-66666666------------99999999-----------|
|-66666666--99999999--99999999--77777777-|
|-44444444--99999999--77777777--77777777-|
|-----------77777777------------55555555-|

>>Guitar 2 Repeat 2x<<

Guitar 2 : Distortion

|----------------------------------------|
|----------------------------------------|
|-66666666------------99999999-----------|
|-XXXXXXXX--99999999--XXXXXXXX--77777777-|
|-44444444--XXXXXXXX--77777777--XXXXXXXX-|
|-----------77777777------------55555555-|

::Interlude::

>>Repeat 4x<< 

Guitar 2 : Distortion

|----4----4-5-4-5p4--|
|---5----5-----------|
|--4----4------------|
|--------------------|
|--------------------|
|--------------------|

>>Repeat 3x<<

Guitar 1 : Distortion

|-----------|
|-----------|
|-----------|
|-11--7--9--|
|-11--7--9--|
|--9--5--7--|

Guitar 2 : Distortion


|----------------------|
|----------------------|
|----------------------|
|-11--7--9-------------|
|-11--7--9--7p6---7p6--|
|--9--5--7-----7-----7-|

>>Repeat once<<

Guitar 1 : Distortion
Guitar 2 : Distortion

|-----------|
|-----------|
|-----------|
|-11--7--9--|
|-11--7--9--|
|--9--5--7--|

::Outro::

>>Repeat 4x<<

Guitar 1 : Distortion

|-----------------------------------------|
|-----------------------------------------|
|-----------------------------------------|
|-11-----------7---------9-------9--------|
|-11-----------7---------9-------9--------|
|--9-----------5---------7-------7--------|

Guitar 2 : Distortion

|-----------------------------------------|
|-----------------------------------------|
|-----------------------------------------|
|-11-11-11-11--7-7-7-7---9-9-9-9-9-9-9-9--|
|-11-11-11-11--7-7-7-7---9-9-9-9-9-9-9-9--|
|--9--9--9--9--5-5-5-5---7-7-7-7-7-7-7-7--|

>>Repeat 2x<<

Guitar 1 : Distortion
Guitar 2 : Distortion

|-----------------------------------------|
|-----------------------------------------|
|-----------------------------------------|
|-11-11-11-11--7-7-7-7---9-9-9-9-9-9-9-9--|
|-11-11-11-11--7-7-7-7---9-9-9-9-9-9-9-9--|
|--9--9--9--9--5-5-5-5---7-7-7-7-7-7-7-7--|

Guitar 1 : Distortion
Guitar 2 : Distortion

|-----------|
|-----------|
|-----------|
|-11--7--9--|
|-11--7--9--|
|--9--5--7--|
Comments