Taking Back Sunday - Cute Without The E Chords & Tabs

 

Cute Without The E Chords & Tabs

Taking Back Sunday Chords & Tabs

Version: 6 Type: Tab 0 ratings
1 star 2 stars 3 stars 4 stars 5 stars
comments

Cute Without The E Tab

   
-------------------------------------------------------------------------------
			     Cute without the E - Taking Back Sunday
-------------------------------------------------------------------------------

Tabbed by:PuNkRoCkCHris
Email:pnkrckchris@aol.com

Tuning:normal tuning

Guitar 1 and 2 will play the same thing pretty much through the whole song.
This is 100% correct because I checked it many times.

Guitar 1 - Intro
e|--------------------------------------------------------------------|
B|-0--0--0--0--0--0--0------------------------------------------------|
G|-2--4--4--4--2--4--4------------------------------------------------|
D|-2--4--4--2--2--4--4------------------------------------------------|
A|-0--2--6--4--0--2--6------------------------------------------------|
E|--------------------------------------------------------------------|

Guitar 1 Repeat whole thing (6x) 
e|---------------------------------------------------------------------------|
B|---------------------------------------------------------------------------|
G|-6------2------4-----------------------------------------------------------|
D|-6-(8x)-2-(8x)-4-(16x)-----------------------------------------------------|
A|-4------0------2-----------------------------------------------------------|
E|---------------------------------------------------------------------------|

Guitar 2 (play with guitar 1) Repeat whole thing (6x)
e|----------------|----------------|-----------------|-----------------------|
B|---------0-0---0|---------0-0---0|----------0-0---0|-----------------------|
G|----------------|----------------|-----------------|-----------------------|
D|-----2-------2--|----2-------2---|-----2-------2---|----1---2-1---1--------|
A|-4-4---4--------|-0-0---0--------|--2-2---2--------|-2-2---2-----2---------|
E|----------------|----------------|-----------------|-----------------------|

Guitar 1 Repeat whole thing (4x)
e|------------------------------------------------------------------|
B|----------------5-------------------------------------------------|
G|-6-------4------4-(8x)-2------------------------------------------|
D|-6-(8x)--4-(8x)-2------2-(8x)-------------------------------------|
A|-4-------2-------------0------------------------------------------|
E|------------------------------------------------------------------|
[ Tab from: http://www.guitartabs.cc/tabs/t/taking_back_sunday/cute_without_the_e_tab_ver_6.html ]
Guitar 2 (play with guitar 1) Repeat whole thing (4x)
e|------------------------------------------------------------------|
B|------------------------------------------------------------------|
G|-6------4------9------2-------------------------------------------|
D|-6-(8x)-4-(8x)-9-(8x)-2-(8x)--------------------------------------|
A|-4------2------7------0-------------------------------------------|
E|------------------------------------------------------------------|

From this point they repeat the same thing over and over again so to save time
and space I put all that crap only once. After they repeat all that crap they
play this.

Guitar 1 Repeat (11x) 
e|---------------------------------------------------------------------------|
B|-------5-------------------------------------------------------------------|
G|-4--4--4--2----------------------------------------------------------------|
D|-2--4--2--2----------------------------------------------------------------|
A|-4--2-----0----------------------------------------------------------------|
E|---------------------------------------------------------------------------|

Guitar 2 (you start playing after you play guitar 1 2 times) repeat guitar 2 (4x)
e|---0-4------0-4--5-4-5-4---------------------------------------------------|
B|-0--------0-------------5--------------------------------------------------|
G|---------------------------------------------------------------------------|
D|---------------------------------------------------------------------------|
A|---------------------------------------------------------------------------|
E|---------------------------------------------------------------------------|

Guitar 1 repeat (3x)
e|--------------------------------------------------------------------------|
B|--------------------------------------------------------------------------|
G|-6-2-4--------------------------------------------------------------------|
D|-6-2-4--2-1---2-1---1-----------------------------------------------------|
A|-4-0-2------2-----2-------------------------------------------------------|
E|--------------------------------------------------------------------------|

Guitar 2 (play at the same time with guitar 1)
e|----------------------|--------------------|-------------------------------|
B|----------------------|--------------------|-------------------------------|
G|-6--------------------|6---4---------------|6-2-4--------------------------|
D|-6-7-9----------------|6-7-4--2-1---2-1---1|6-2-4--2-1---2-1---1-----------|
A|-4-7-9--7-6----7-6---6|4-7-2------2-----2--|4-2-2------2-----2-------------|
E|---5-7-------7-----7--|--5-----------------|-------------------------------|

And I think that's the whole song. The rest just repeats the beginning of the
tabs that I wrote where it says 6 and all that shit. If I missed any thing than
correct it.                     6
                                4   
                               
                                
| /  slide up
| \  slide down
| h  hammer-on
| p  pull-off
| ~  vibrato
| +  harmonic
| x  Mute note
===============================================================================
Comments