Taking Back Sunday - Cute Without The E Chords & Tabs

 

Cute Without The E Chords & Tabs

Taking Back Sunday Chords & Tabs

Version: 1 Type: Bass Tab 0 ratings
1 star 2 stars 3 stars 4 stars 5 stars
comments

Cute Without The E Bass Tab

Band: Taking Back Sunday
Song: Cute Without the 'E' (Cut From the Team)
Tuning: Standard (EADG)


VERSE:
G|---------------------------------------------------------------------------|
D|---------------------------------------------------------------------------|
A|-4-4-4-4-4-4-4-4--0-0-0-0-0-0-0-0--2-2-2-2-2-2-2-2-2-2-2--6-6-6-6----------|
E|---------------------------------------------------------------------------|

CHORUS: 
G|---------------------------------------------------------------------------|
D|-----------------------4-------4--------------------------2-------2--------|
A|-4-4-4-4-4/6-7--0--2-2---2-2-2---2/7-7-7-7-7-7/9\7--0-0-0--0-0-0-----------|
E|---------------------------------------------------------------------------|
[ Tab from: http://www.guitartabs.cc/tabs/t/taking_back_sunday/cute_without_the_e_btab.html ]
POST-CHROUS:
G|---------------------------------------------------------------------------|
D|---------------------------------------------------------------------------|
A|-4-4-4-4-4-4--2-2-2-2-2-2/7-7-7-7-7/9\7--0-0-0-0-0-0-0-0-------------------|
E|---------------------------------------------------------------------------|

Climax/Ending Pattern (Strumming Varies):
G|---------------------------------------------------------------------------|
D|---------------------------------------------------------------------------|
A|-4--0--2-------------------------------------------------------------------|
E|---------------------------------------------------------------------------|


i have yet to see TBS live, and there are obviously some alternative ways to play
this song, so if you've seen them and they play this differently e-mail me at
m_bazan@fastmail.fm. thanks.
Comments