Taking Back Sunday - Cute With Out The E (cut From The Team) Chords & Tabs

 

Cute With Out The E (cut From The Team) Chords & Tabs

Taking Back Sunday Chords & Tabs

Version: 1 Type: Tab 1 rating
1 star 2 stars 3 stars 4 stars 5 stars
comments

Cute With Out The E (cut From The Team) Tab

   
This tab is 100% correct. (Based on one guitar)

This song is played with two guitars, but you can play it quite successsfully with one.

Standard Tuning:
E,A,D,G,B,E.

h=              Hammer on
p=              Pull off
Let ring (---)= Area under (---) Let Ring

Intro (Clean)
Let ring
|--0---0---0---0----|
|--0---0---0---0----|
|--4---4---4---4----|
|--2---2---2---1----|
|--4---0---2---2----|
|-------------------| x2

Verse (Distorted)
Pick Fast
|--------------------------------------------|
|--------------------------------------------|
|------4-4------4-4------4-4----------4------|
|---2-2-2-2--2-2-2-2--2-2-2-2--1h2-1h2--2p1--|
|--4-4------0-0------2-2-------------------2-|
|--------------------------------------------| x4 
[ Tab from: http://www.guitartabs.cc/tabs/t/taking_back_sunday/cute_with_out_the_e_cut_from_the_team_tab.html ]
Chorus (Distorted)
(strum chords)
|------------------|
|------------------|
|--6---4---9-------|
|--6---4---9---7---|
|--4---2---7---7---|
|--------------5---| x4


Repeat Verse (x4)


Repeat Chorus (x4)


Bridge (Light Dist)
(Pluck E Maj notes, 
Let Ring(---)                
|------------| |----------------------|
|------------| |----------------------|
|------1-----| |-----1-2-1h2p1--------|
|----2-------| |---2------------4-----|
|--2---------| |-2-----------------2--|
|------------| |----------------------|x4

 Strum        Pluck
 {--------}  [--------)
|-----------------------|
|-----------------------|
|--6--------------------|
|--6--7---9-------------|
|--4--7---9---7p6--7p6--|
|-----5---7------7----7-|x4

Outro
Strum               Let Ring(---)
|--------------|    |-----------|
|--------------|    |-----------|
|--4--4--4--4--|    |--6--------|
|--2--2--2--1--|    |--6--7--9--|
|--4--0--2--2--|    |--4--7--9--|
|--------------|x4  |-----5--7--|x1

Enjoy
Any Comments go to jak_d_lad@hotmai.com
Comments