Taking Back Sunday - Alone Forever Chords & Tabs

 

Alone Forever Chords & Tabs

Taking Back Sunday Chords & Tabs

Version: 2 Type: Tab 0 ratings
1 star 2 stars 3 stars 4 stars 5 stars
comments

Alone Forever Tab

Here's an easier version from this acoustic song... does anybody knows the lyrics? i 
hear them if you have it send them to x17_89@hotmail.com please another thing ...maybe the 
IN THE ORDER arent right.. the reason? im too lazy so maybe they are wrong but the chords are right.

Tabbed by: Mario Oscar
Tuning:Standard

 Riff 1:
e|----------------------------------|
B|-0---0---0--0--0---0---0--0-------|
G|---0---0--0--0---0---0--0--0------|
D|-2---2---0--0---------------------|
A|---------------2---2---3--3-------|
E|----------------------------------|
[ Tab from: http://www.guitartabs.cc/tabs/t/taking_back_sunday/alone_forever_tab_ver_2.html ]
 RIFF 2 listen very close IT EXISTS!!!
e|---------------------------------------------|
B|-0--0-0--0--0--0--0--0-----------------------|
G|--0--0--0-0--0--0--0--0----------------------|
D|---------------------------------------------|
A|------5--5--3--3--2--2-----------------------|
E|-3--3----------------------------------------|

 RIFF 3
e|---------------------------------------------------|
B|-3---3----3---3---3---3---5---5--------------------|
G|-0---0----0---0---0---0---5---5--------------------|
D|---------------------------------------------------|
A|----------2---2---3---3---5---5--------------------|
E|-3---3---------------------------------------------|

THATS ALL RATE PLEASE!... WELL NO... NOT PLEASE JUST RATE.
Comments