Taking Back Sunday - Alone Forever Chords & Tabs

 

Alone Forever Chords & Tabs

Taking Back Sunday Chords & Tabs

Version: 1 Type: Tab 0 ratings
1 star 2 stars 3 stars 4 stars 5 stars
comments

Alone Forever Tab

   
-------------------------------------------------------------------------------
			     ALONE FOREVER - Taking Back Sunday
-------------------------------------------------------------------------------
Tabbed by: nighthawke

this is kind of a hidden song. i think it's a demo they made, not sure, but i just saw 
while downloading some TBS songs.
this tab is 100% accurate. it's a very easy song. =)


Tuning: standard

intro/verse
e|-----------------------------------------------------------------------------|
B|-----------------------------------------------------------------------------|
G|--4--0---4--0---4--0---4--0----4--0---4--0---4--0---4--0---------------------|    4x
D|-----------------------------------------------------------------------------|
A|--7~-----7~----5~-----5~-----2~----2~-----3~----3~---------------------------|
E|-----------------------------------------------------------------------------|

e|-----------------------------------------------------------------------------|
B|-----------------------------------------------------------------------------|
G|--4--0---4--0---4--0---4--0----4--0---4--0---4--0---4--0---------------------|    2x
D|-----------------------------------------------------------------------------|
A|-------------------5~-----5~-----3~----3~-----2~----2~-----------------------|
E|--3~-----3~------------------------------------------------------------------|

chorus
e|-----------------------------------------------------------------------------|
B|--3-------3-------3-------3--------3------3-------5-------5------------------|
G|-----0-------0-------0-------0--------0------0-------0-------0---------------|    2x
D|-----------------------------------------------------------------------------|
A|-------------------2~-----2~------3~----3~----7~----7~-----------------------|
E|--3~-----3~------------------------------------------------------------------|
[ Tab from: http://www.guitartabs.cc/tabs/t/taking_back_sunday/alone_forever_tab.html ]
verse
e|-----------------------------------------------------------------------------|
B|-----------------------------------------------------------------------------|
G|--4--0---4--0---4--0---4--0----4--0---4--0---4--0---4--0---------------------|    4x
D|-----------------------------------------------------------------------------|
A|--7~-----7~----5~-----5~-----2~----2~-----3~----3~---------------------------|
E|-----------------------------------------------------------------------------|

e|-----------------------------------------------------------------------------|
B|-----------------------------------------------------------------------------|
G|--4--0---4--0---4--0---4--0----4--0---4--0---4--0---4--0---------------------|    2x
D|-----------------------------------------------------------------------------|
A|-------------------5~-----5~-----3~----3~-----2~----2~-----------------------|
E|--3~-----3~------------------------------------------------------------------|

chorus
e|-----------------------------------------------------------------------------|
B|--3-------3-------3-------3--------3------3-------5-------5------------------|
G|-----0-------0-------0-------0--------0------0-------0-------0---------------|    6x
D|-----------------------------------------------------------------------------|
A|-------------------2~-----2~------3~----3~----7~----7~-----------------------|
E|--3~-----3~------------------------------------------------------------------|

outro
e|-----------------------------------------------------------------------------|
B|-----------------------------------------------------------------------------|
G|--4--0---4--0---4--0---4--0----4--0---4--0---4--0---4--0---------------------|    4x
D|-----------------------------------------------------------------------------|
A|--7~-----7~----5~-----5~-----2~----2~-----3~----3~---------------------------|
E|-----------------------------------------------------------------------------|

e|-----------|
B|-----------|
G|----0~-----|
D|-----------|
A|-----------|
E|-----------|
end in this note which is the last one on the outro.


| /  slide up
| \  slide down
| h  hammer-on
| p  pull-off
| ~  vibrato
| +  harmonic
| x  Mute note
===============================================================================
Comments