Taking Back Sunday - A Decade Under The Infulance Chords & Tabs

 

A Decade Under The Infulance Chords & Tabs

Taking Back Sunday Chords & Tabs

Version: 1 Type: Tab 1 rating
1 star 2 stars 3 stars 4 stars 5 stars
comments

A Decade Under The Infulance Tab

Tuning: dropped D

Verse:
e|-----0-------0-------0-------0-------0-------0-------0-------0-----------|
B|-----5-------5-------5-------5-------5-------5-------5-------5-----------|
G|-----4-------4-------4-------4-------4-------4-------4-------4-----------|
D|-----2-------2-------2-------2-------2-------2-------2-------2-----------|
A|-0-0-0---0-0-0---0-0-0---0-0-0---0-0-0---0-0-0---0-0-0---0-0-0-----------|
D|-------------------------------------------------------------------------|

e|-------------------------------------------------------------------------|
B|-----2-------2-------2-------2-------2-------2-------2-------2-----------|
G|-----2-------2-------2-------2-------2-------2-------2-------2-----------|
D|-0-0-0---0-0-0---0-0-0---0-0-0---0-0-0---0-0-0---0-0-0---0-0-0-----------|
A|-------------------------------------------------------------------------|
D|-------------------------------------------------------------------------|

Pre-Chorus:
e|-------------------------------------------------------------------------|
B|-------------------------------------------------------------------------|
G|-2---2---2---2---2---2---2---2---2---2---2---2---2---2---2---2-----------|
D|-2---2---2---2---2---2---2---2---2---2---2---2---2---2---2---2-----------|
A|-0---0---0---0---0---0---0---0---0---0---0---0---0---0---0---0-----------|
D|-------------------------------------------------------------------------|
[ Tab from: http://www.guitartabs.cc/tabs/t/taking_back_sunday/a_decade_under_the_infulance_tab.html ]
e|-------------------------------------------------------------------------|
B|-------------------------------------------------------------------------|
G|-------------------------------------------------------------------------|
D|-0---0---0---0---0---0---0---0---0---0---0---0---0---0---0---0-----------|
A|-0---0---0---0---0---0---0---0---0---0---0---0---0---0---0---0-----------|
D|-0---0---0---0---0---0---0---0---0---0---0---0---0---0---0---0-----------|

e|-------------------------------------------------------------------------|
B|-------------------------------------------------------------------------|
G|-------------------------------------------------------------------------|
D|-4---4---4---4---4---4---4---4---4---4---4---4---4---4---4---4-----------|
A|-4---4---4---4---4---4---4---4---4---4---4---4---4---4---4---4-----------|
D|-4---4---4---4---4---4---4---4---4---4---4---4---4---4---4---4-----------|

e|-------------------------------------------------------------------------|
B|-------------------------------------------------------------------------|
G|-------------------------------------------------------------------------|
D|-2---2---2---2---2---2---2---2---2---2---2---2---2---2---2---2-----------|
A|-2---2---2---2---2---2---2---2---2---2---2---2---2---2---2---2-----------|
D|-2---2---2---2---2---2---2---2---2---2---2---2---2---2---2---2-----------|


"Anyone will do tonight" part:
e|-------------------------------------------------------------------------|
B|-------------------------------------------------------------------------|
G|-------------------------------------------------------------------------|
D|-4---4---4---4---4---4---4---4---4---4---4---4---------------------------|
A|-4---4---4---4---4---4---4---4---4---4---4---4---------------------------|
D|-4---4---4---4---4---4---4---4---4---4---4---4---------------------------|

e|-------------------------------------------------------------------------|
B|-------------------------------------------------------------------------|
G|-------------------------------------------------------------------------|
D|-0---0---0---0---0---0---0---0---0---0---0---0---0---0---0---0-----------|
A|-0---0---0---0---0---0---0---0---0---0---0---0---0---0---0---0-----------|
D|-0---0---0---0---0---0---0---0---0---0---0---0---0---0---0---0-----------|


Comments