Taking Back Sunday - A Decade Under The Influence Chords & Tabs

 

A Decade Under The Influence Chords & Tabs

Taking Back Sunday Chords & Tabs

Version: 5 Type: Tab 0 ratings
1 star 2 stars 3 stars 4 stars 5 stars
comments

A Decade Under The Influence Tab

   
Tune: standard

intro
----------------------------------------------------------------------------		     
A Decade Under the Influence by Taking Back Sunday

-------------------------------------------------------------------------------
Tabbed by:PAUL
Email:LP182ME@AOL.COM

Tuning:STANDARD

~LISTEN FOR THE CHANGES IN THE SONG~

INTRO
e|-----------         |-----------------------|
B|-----------         |-----------------------|
G|------6----    X8   |-----77777777777777----|
D|-55--------         |-----77777777777777----|
A|-----------         |-----55555555555555----|
E|-----------         |-----------------------|
VERSE
e|-------------------------------------|
B|-------------------------------------|
G|---6-6-6-6-6-6-6-6-6-6-6-6-6-6-6-6---|
D|---7-7-7-7-7-7-7-7-7-7-7-7-7-7-7-7---|
A|---0-0-0-0-0-0-0-0-0-0-0-0-0-0-0-0---|
E|-------------------------------------|
     . . . . . . . . . . . . . . . .
e|-------------------------------------|         |---------|
B|-------------------------------------|         |---------|
G|---6-6-6-6-6-6-6-6-6-6-6-6-6-6-6-6---| REPEAT  |--66666--| END VERSE
D|---7-7-7-7-7-7-7-7-7-7-7-7-7-7-7-7---| VERSE   |--77777--| WITH THIS
A|---5-5-5-5-5-5-5-5-5-5-5-5-5-5-5-5---|         |--55555--|
E|-------------------------------------|         |---------|
     . . . . . . . . . . . . . . . .
CHORUS
e|--------------------------|
B|--------------------------|
G|--222222222277777777777---| REPEAT
D|--222222222277777777777---|   X3
A|--000000000055555555555---|
E|--------------------------|

VERSE

CHORUS 2
e|--------------------------------------|
B|--------------------------------------|
G|--22222222777777772222222277777777----|
D|--22222222777777772222222277777777----|
A|--00000000555555550000000055555555----|
E|--------------------------------------|
[ Tab from: http://www.guitartabs.cc/tabs/t/taking_back_sunday/a_decade_under_the_influence_tab_ver_5.html ]
e|--------------------------------------|
B|--------------------------------------|
G|------------------7777777777777777----|
D|--44444444222222227777777777777777----|
A|--44444444222222225555555555555555----|
E|--2222222200000000--------------------|
                    ................

BREAKDOWN
e|------------------------------------------------|
B|------------------------------------------------|
G|--------------------------------777777777777----|REPEAT
D|--44444--4-4-4-4--44444--4-4-4-4777777777777----|  X2
A|--44444--4-4-4-4--44444--4-4-4-4555555555555----|
E|--22222--2-2-2-2--22222--2-2-2-2----------------|

e|--------------------------------------|
B|--------------------------------------|
G|-------------------------------7------|
D|--44444--4-4-4-4--44444-4-4-4-47------|
A|--44444--4-4-4-4--44444-4-4-4-45------|
E|--22222--2-2-2-2--22222-2-2-2-2-------|

BREAKDOWN CONT.
e|-0-0---0-0----0-0--0-0---0-0-0--0-0---0-0---0-0--0-0---0-0-
B|-0---0-0---0--3-3--0---0-0-3-3--0---0-0---0-3-3--0---0-0-3-
G|-2-----1------2-2--2-----1-2-2--2-----1-----2-2--2-----1-2-
D|-2-----2------0-0--2-----2-0-0--2-----2-----0-0--2-----2-0-
A|-0-----2-----------0-----2------0-----2----------0-----2---
E|-2-----------------2------------2----------------2---------

--------------------------|
--------------------------|
-----7777777777777777-----|
-----7777777777777777-----|
-----5555555555555555-----|
--------------------------|
     ................

e|-----------------------------------|
B|-----------------------------------|
G|-------------------7777777777777777|  REPEAT
D|---44444444222222227777777777777777|    X3
A|---44444444222222225555555555555555|
E|---2222222200000000----------------|

e|---------------------|
B|---------------------|
G|-------------------7-| END ON
D|---44444444777799997-|
A|---44444444777799995-|
E|---2222222255557777--|

| /  slide up
| \  slide down
| h  hammer-on
| p  pull-off
| ~  vibrato
| +  harmonic
| x  Mute note
===============================================================================
Comments