Taking Back Sunday - A Decade Under The Influence Chords & Tabs

 

A Decade Under The Influence Chords & Tabs

Taking Back Sunday Chords & Tabs

Version: 3 Type: Tab 0 ratings
1 star 2 stars 3 stars 4 stars 5 stars
comments

A Decade Under The Influence Tab

-----------  a decade under the influence - taking back sunday  ------------
Tabbed by:anthonearellano
Email:skippymcdoodle@yahoo.com

Tuning:standard

intro...its reaaaally important to upstroke that chord ok?
e|--------------------------------------------------------------------------|
B|-----0<---optional--------------------------------------------------------|
G|-----9--------------------------------------------------------------------|
D|-----7---------------do an 8 count(2 bars...whatever)---------------------|
A|-0-0----------------------------------------------------------------------|
E|--------------------------------------------------------------------------|

e|--------------------------------------------------------------------------|
B|--------------------------------------------------------------------------|
G|-5------------------------------------------------------------------------|
D|-5-----8 count twice------------------------------------------------------|
A|-7------------------------------------------------------------------------|
E|--------------------------------------------------------------------------|

hipster chords...(see note on bottom about these chords)
e|--------------------------------------------------------------------------|
B|-------------9----------10------------------------------------------------|
G|--9----------9----------9---------9---------------------------------------|
D|--7----------7----------7---------7-----8 count on all of these.----------|
A|----------------------------------------and it will repeat itself twice---|
E|--------------------------------------------------------------------------|

chorus...(this will carry you from "you say you.." all the way to, "its on"
e|--------------------------------------------------------------------------|
B|--------------------------------------------------------------------------|
G|------------------7-------------------------------------------------------|
D|-7----------------7-------------------------------------------------------|
A|-7----------------5--8 count twice----------------------------------------|
E|-5--8 count twice---------------------------------------------------------|

hipster chords...(see note on bottom about these chords)
e|--------------------------------------------------------------------------|
B|-------------9----------10------------------------------------------------|
G|--9----------9----------9---------9---------------------------------------|
D|--7----------7----------7---------7-----8 count on all of these.----------|
A|----------------------------------------and it will repeat itself twice---|
E|--------------------------------------------------------------------------|

2nd chorus changes chords some.+ you gotta slow it down a bit on 2/4/4,0/2/2
e|--------------------------------------------------------------------------|
B|--------------------------------------------------------------------------|
G|-----7--------------------------------------------------------------------|
D|-7---7-------4----------2-go to the 3rd power chord on "to hell with..."--|
A|-7---5-------4----------2-------------------------------------------------|
E|-5-----------2----------0--8 count on all of these.-----------------------|
[ Tab from: http://www.guitartabs.cc/tabs/t/taking_back_sunday/a_decade_under_the_influence_tab_ver_3.html ]
angry man boy part..."IVE GOT A BAD FEELING ABOUT THIS...!"
e|--------------------------------------------------------------------------|
B|--------------------------------------------------------------------------|
G|--------------------------------------------------------------------------|
D|-7------------------------------------------------------------------------|
A|-7--palm mute 8 count 4 times---------------------------------------------|
E|-5------------------------------------------------------------------------|

more angry man boy stuff..."ANYONE WILL DO TONIGHT!..."
e|------------------------it sounds fuller if you do this during the "oohs"--|
B|------------------------otherwise you just strike 7/9/9 a few times--------|
G|-----------------------9-----(7--6--4----------------------------------)---|
D|-4---------------------9-----(7--6--4--these are optional,it justsounds)---|
A|-4---------------------7-----(5--4--2--better if youre playing alone---)---|
E|-2--12 times then go to------(---------and your singing with it.-------)---|

the "i know i just screamed like crazy but i can still sound sane" part.
e|---this comes a few bars later, 12---17-12---12---17-12--10---10-9--------|
B|---and theyre all single notes-------------------------------------10-----|
G|---9------9---------------------------------------------------------------|
D|-7---9--7---9--7---7------------------------------------------------------|
A|--------------------------------------------------------------------------|
E|-(above:this over laps,theres some chords behind it but you cant doboth!)|

above continues to end of song using these power chords 8 times each
e|--------------------------------------------------------------------------|
B|--------------------------------------------------------------------------|
G|----------------7---------------------------------------------------------|
D|-4------2-------7---------------------------------------------------------|
A|-4------2-------5---------------------------------------------------------|
E|-2------0-----------------------------------------------------------------|

if your playing alone, it sounds nice if you interchange that last 5/7/7 powerchord
from the the A string to the E. it just gives it more bite.like say if your
trying to impress some girl with your acoustic skillz, it would make a better
ending. cuz fading out with that power chord itself on D would be kinda dry.
ya know?


note on hipster chord: there is an effect on those chords. when the extra strings
are added on 9 and 10 its only the first time its plucked and then the reverb or
whatever takes it from there. you gotta find the beat on when to pluck that accent
and then revert straight back to the main 7/9 chord, all while maintaining that
accent string. this is all if you only dont have that effect pedal of course. or
you can be lazy and just hit the added strings all the way through, but if you
listen closely they fade away but that 7/9 chord stays. it also repeats to the
to 7/9 one more time before the main chorus. but you already can see that on the
tab so im being repetitive now, repetitive now, repetitive now..


anyway, this is NOWAY the song to the T, but itll get you by.
hook me up with the real beats if you gottem k?

:this message will self destruct in 5 seconds...:

============================================================================
Comments