Tait - Wait Chords & Tabs

 

Wait Chords & Tabs

Tait Chords & Tabs

Version: 1 Type: Tab

Wait Tab

============                                  =========================
Wait---Tait-----------------------------------Transfered by Asa Gaston
============                                  =========================

This song is in drop D
[ Tab from: http://www.guitartabs.cc/tabs/t/tait/wait_tab.html ]
E-------------------------------------------------------|
B-------------------------------------------------------|
G-------------------------------------------------------|
D--00-33-5555--0000-6-5-3-------------------------------|
A--00-33-5555--0000-6-5-3-------------------------------|
D--00-33-5555--0000-6-5-3-------------------------------|

Just keep repeating this over and over, listen to the song so you know where to add palm mute.

BRIDGE
E----------------------------------------------------|
B----------------------------------------------------|
G----------------------------------------------------|
D--0-6-5-3-0--0-6-5-3-0--0-3-0--0-3-0----------------|
A--0-6-5-3-0--0-6-5-3-0--0-3-0--0-3-0----------------|
D--0-6-5-3-0--0-6-5-3-0--0-3-0--0-3-0----------------|
play this twice then goes back into the other one