Tait - Looking For You Chords & Tabs

 

Looking For You Chords & Tabs

Tait Chords & Tabs

Version: 1 Type: Tab

Looking For You Tab

   
Clean electric or acoustic

Intro (@ 0:21)
                                      
e-----------------|-------------------|
B----------13-15--|-------13-15-17-13-|
G-12-12-14--------|-12-14-------------|
D-----------------|-------------------|
A-----------------|-------------------|
E-----------------|-------------------|
[ Tab from: http://www.guitartabs.cc/tabs/t/tait/looking_for_you_tab.html ]
Second time is (@ 1:37) 
                               |I think these are the right two notes|
e-----------------|--------------------------------|-------|
B----------13-15--|-------13-15-17-13--13-15-17-13-|-------|
G-12-12-14--------|-12-14--------------------------|-12-10-|
D-----------------|--------------------------------|-------|
A-----------------|--------------------------------|-------|
E-----------------|--------------------------------|-------|

Song notes: I hope this does not get you confused.

============================                    =========================
Looking For You---Kevin Max---------------------Transfered by Asa Gaston
============================                    =========================

The chords for the intro, I think, are below. Listen to the CD to get it
right. 

Just make a C chord and add your fourth finger to  B-3 
e-0-
B-3-
G-0-   Then you play C, 
D-2-
A-3-
e-0-

Then this...

e-0-
B-3-
G-2-     Then play it with out your fouth finger on B-3  
D-3-
A-0-
e-0-