Tables And The Chairs - Imitation Solo Chords & Tabs

 

Imitation Solo Chords & Tabs

Tables And The Chairs Chords & Tabs

Version: 1 Type: Tab 1 rating
1 star 2 stars 3 stars 4 stars 5 stars
comments

Imitation Solo Tab

   
Imitation by Tables and the Chairs




play Chords as bar chords

Pino Intro then 

A C D C X 1   A C D X 1   A C D C X 2

Chourus

C D F G 
         Imitation

C D F G 
         Imitation

Guitar Solo
[ Tab from: http://www.guitartabs.cc/tabs/t/tables_and_the_chairs/imitation_solo_tab.html ]
--10--------10--------10-------------------------------------10---------10---------10--------------
----13-10-----13-10------13-10----------------------------------13-10------13-10-----13-10---------
----------13--------13---------13-12-10------------------10-----------13---------13-------13-12-10-
----------------------------------------12-10-12-12-10-12------------------------------------------
---------------------------------------------------------------------------------------------------
---------------------------------------------------------------------------------------------------

---------------------------------------------------------------------------------------------------
---------------------------------------------------------------------------------------------------
---------------------------------------------------------------------------------------------------
-12-10---------------------------------------------------------------------------------------------
------12-11-10-------------------------------------------------------------------------------------
---------------13-10-13-10-13-10-------------------------------------------------------------------


Verse 2



Chourus X 3 with no vocals

then A C D C X 2

Comments