T Rex - Lifes A Gas Chords & Tabs

 

Lifes A Gas Chords & Tabs

T Rex Chords & Tabs

Version: 1 Type: Chords 0 ratings
1 star 2 stars 3 stars 4 stars 5 stars
comments

Lifes A Gas Chords

   
T - Rex - Life's a Gas
Electric Warrior (1971)
Transcribed by Chris Read (anarchy_2kuk@yahoo.co.uk)

Chords:
       EADGBE
G:    (320033)
D:    (xx0232)
Dsus4:(xx0233)
c:    (x32010)
Am:   (x02210)

Intro
G


G					Fill 1
I could have love you girl like a planet
G                                      D  Dsus4  D
I could have chained your heart to a star
c        Am                       D
But it really doesn't matter at all
c        Am                       D
No, it really doesn't matter at all
          G
Life's a gas

G					Fill 1
I could have built a house in the ocean
G                                    D  Dsus4  D
I could have placed our love in the sky 
c        Am                      D
But it really doesn't matter at all
c        Am                      D
No, it really doesn't matter at all
          G
Life's a gas
[ Tab from: http://www.guitartabs.cc/tabs/t/t_rex/lifes_a_gas_crd.html ]
G					Fill 1
I could have turned you into a priestess
G                                       D  Dsus4  D
I could have burned your faith in the sand
c        Am                      D
But it really doesn't matter at all
No, it really doesn't matter at all
          G
Life's a gas
(i hope it's gonna last)


Guitar Solo (Played 

|-----------------------------------------------------------------------------|
|-----------------------------------------------------------------------------|
|-----7---9b11-9b11r9-7---7--9-\-11-/-0-------7---9b11-9b11r9-7---------------|
|--\9---7---------------9------------------\9---7---------------9-7-\-9-/-7---|
|-----------------------------------------------------------------------------|
|-----------------------------------------------------------------------------|


c        Am                      D
But it really doesn't matter at all
No, it really doesn't matter at all

          G
Life's a gas


Fill 1:

|-----------------|
|-----------------|
|-----------------|
|--4-2-0----------|
|--------2-0------|
|------------3~---|

Guitar Fills and solo's are played with a octave pedal.
Comments