T Rex - Get It On Chords & Tabs

 

Get It On Chords & Tabs

T Rex Chords & Tabs

Version: 2 Type: Tab 0 ratings
1 star 2 stars 3 stars 4 stars 5 stars
comments

Get It On Tab

   
Artist: T. Rex
Album: The Slider
Transcribed: Ajum
E-Mail: ugmo@pulp-fiction.com

Get it on, by T. Rex, quite possibly one of the best songs ever by one
of the best bands ever, and here it is.

Play this rather strenuous riff ad nauseum. its good for you.
e:------------------------|
B:------------------------|
G:------------------------|
D:------------------------|
A:-2--2--2--4--2--2--4----|
E:-0--0--0--0--0--0--0----|
   (-------p.m.-----------|

Splash this one in every once in a while.
e:----------------------|
B:-5--5--5-5-5----------|
G:-4--4--4-4-4----------|
D:-2--2--2-2-2----------|
A:----------------------|
E:-------------2b3r2-0--|
[ Tab from: http://www.guitartabs.cc/tabs/t/t_rex/get_it_on_tab_ver_2.html ]
Now these, i wouldnt even bother learning them. The first time i even
noticed they were there was when one of my speakers blew and i couldn't
hear the above riff to drown it out. But if you must...

    G    Gsus   A    Asus
e:--3--|--3--|--5--|--5--|
B:--3--|--3--|--5--|--5--|
G:--4--|--5--|--6--|--7--|
D:--5--|--3--|--7--|--5--|
A:--5--|--5--|--7--|--7--|
E:--3--|--3--|--5--|--5--|

Funky little fill, aint nothin wrong with that.
e:--------------------------------------------------------|
B:------------------------12------------------------------|
G:--------12-14-----12-14----14p12----14b16r14-12---------|
D:--12h14------\vib----------------14-------------14------|
A:--------------------------------------------------\vib--|
E:--------------------------------------------------------|
Comments