T Rex - Get It On Chords & Tabs

 

Get It On Chords & Tabs

T Rex Chords & Tabs

Version: 1 Type: Bass Tab 0 ratings
1 star 2 stars 3 stars 4 stars 5 stars
comments

Get It On Bass Tab

   
-----------------------------------------------------------------------------
			     BANG A GONG (GET IT ON) - T.Rex
-----------------------------------------------------------------------------

Tabbed By : Ramon is cool!
e-mail: n/a

Tuning:
   main groove
G|-----------------------------|
D|-----------------------------|
A|7--7--7-7--7--7-7--7--7-7--7-|
E|-9--9----9--9----9--9----9--9|

   verse
G|---------------------------------------------|
D|--------77777777-------77777777--------------|
A|77777777---------7--7-----------7--7--7-7--7-|
E|------------------9--9-----------9--9---9---9|

   chorus
G|-------------------------------|
D|-------------------------------|
A|-----575------797-7--7--7-7--7-|
E|55557----77779-----9--9----9--9|
[ Tab from: http://www.guitartabs.cc/tabs/t/t_rex/get_it_on_btab.html ]
G|-----------------|
D|-----------------|
A|--------------797|
E|55555555-77779---|

   first solo (after third chorus)
G|--------97------|
D|----------97----|
A|------------9757|
E|----------------|

   second solo(after fourth chorus)

G|--------97--------57979|
D|----------97----57-----|
A|------------9757-------|
E|-----------------------|


    order of the song:
 1)main groove (x2)
  2)verse (x2)
   3)chorus
    4)main groove
     5)verse
      6)chorus
       7)main groove
        8)verse (x2)
         9)chorus
          10)first solo
           11)main groove
            12)verse (x2)
             13)chorus (x2)
              14)second solo
               15)main groove
                16)chorus (x3)
                 17)main groove  
                   and fade...
Comments