T Rex - Children Of The Revolution Chords & Tabs

 

Children Of The Revolution Chords & Tabs

T Rex Chords & Tabs

Version: 3 Type: Tab 0 ratings
1 star 2 stars 3 stars 4 stars 5 stars
comments

Children Of The Revolution Tab

   
Tabbed by: Tony Ball
Email: Tonyjamesball@hotmail.com
I couldn't find the solo for this song on the net so i worked it out for myself i think
its right please correct me if im wrong thanks
Tuning: EGDGBe
In order to play this song i find it much easier to drop the 'A' note to a 'G' note and
the 5th string so make sure to retune it.

~ = Fast strumming

Intro

e|------------------------------------------------|
B|------------------------------------------------|
G|-9---9---7-9---7-9------7-9-7-9-7-9-7-9-12-9----|
D|-9---9---7-9---7-9------7-9-7-9-7-9-7-9-12-9----| x2
G|-9---9---7-9---7-9------7-9-7-9-7-9-7-9-12-9----|
E|------------------------------------------------|

Verse ('well you can bop and grind...')

e|------------------------------------------------|
B|------------------------------------------------|
G|-9---9---7-9---7-9-----9---9---9-7---9-7--------|
D|-9---9---7-9---7-9-----9---9---9-7---9-7--------| 
G|-9---9---7-9---7-9-----9---9---9-7---9-7--------|
E|------------------------------------------------|

e|------------------------------------------------|
B|------------------------------------------------|
G|-9---9---7-9---7-9-----9---9--------------------|
D|-9---9---7-9---7-9-----9---9--------------------| 
G|-9---9---7-9---7-9-----9---9--------------------|
E|------------------------------------------------|

Chorus

e|------------------------------------------------|
B|------------------------------------------------|
G|-0-0-0-0-5-5-5-5-2-2-2-2-0-0-0-0-5-5-5-5-2-2-2-2|
D|-0-0-0-0-5-5-5-5-2-2-2-2-0-0-0-0-5-5-5-5-2-2-2-2| 
G|-0-0-0-0-5-5-5-5-2-2-2-2-0-0-0-0-5-5-5-5-2-2-2-2|
E|------------------------------------------------|

Intro

e|------------------------------------------------|
B|------------------------------------------------|
G|-9---9---7-9---7-9------7-9-7-9-7-9-7-9-12-9----|
D|-9---9---7-9---7-9------7-9-7-9-7-9-7-9-12-9----| x2
G|-9---9---7-9---7-9------7-9-7-9-7-9-7-9-12-9----|
E|------------------------------------------------|

Verse 2 (well you can tear a plane...)
[ Tab from: http://www.guitartabs.cc/tabs/t/t_rex/children_of_the_revolution_tab_ver_3.html ]
e|------------------------------------------------|
B|------------------------------------------------|
G|-9---9---7-9---7-9-----9---9---9-7---9-7--------|
D|-9---9---7-9---7-9-----9---9---9-7---9-7--------| 
G|-9---9---7-9---7-9-----9---9---9-7---9-7--------|
E|------------------------------------------------|

e|------------------------------------------------|
B|------------------------------------------------|
G|-9---9---7-9---7-9-----9---9--------------------|
D|-9---9---7-9---7-9-----9---9--------------------| 
G|-9---9---7-9---7-9-----9---9--------------------|
E|------------------------------------------------|

Chorus

e|------------------------------------------------|
B|------------------------------------------------|
G|-0-0-0-0-5-5-5-5-2-2-2-2-0-0-0-0-5-5-5-5-2-2-2-2|
D|-0-0-0-0-5-5-5-5-2-2-2-2-0-0-0-0-5-5-5-5-2-2-2-2| 
G|-0-0-0-0-5-5-5-5-2-2-2-2-0-0-0-0-5-5-5-5-2-2-2-2|
E|------------------------------------------------|

Wait for drum fill...(guy screams yeah)

Intro

e|------------------------------------------------|
B|------------------------------------------------|
G|-9---9---7-9---7-9------7-9-7-9-7-9-7-9-12-9----|
D|-9---9---7-9---7-9------7-9-7-9-7-9-7-9-12-9----| x2
G|-9---9---7-9---7-9------7-9-7-9-7-9-7-9-12-9----|
E|------------------------------------------------|

solo (verse played behind)

e|--------------------0--2--4---------------------|
B|--0--3--0--5--5--5-----------5--3--5------------|
G|------------------------------------------------|
D|------------------------------------------------| x2
G|------------------------------------------------|
E|------------------------------------------------|

Chorus

e|------------------------------------------------|
B|------------------------------------------------|
G|-0-0-0-0-5-5-5-5-2-2-2-2-0-0-0-0-5-5-5-5-2-2-2-2|
D|-0-0-0-0-5-5-5-5-2-2-2-2-0-0-0-0-5-5-5-5-2-2-2-2| x2
G|-0-0-0-0-5-5-5-5-2-2-2-2-0-0-0-0-5-5-5-5-2-2-2-2|
E|------------------------------------------------|

Outro (same as intro)

e|------------------------------------------------|
B|------------------------------------------------|
G|-9---9---7-9---7-9------7-9-7-9-7-9-7-9-12-9----|
D|-9---9---7-9---7-9------7-9-7-9-7-9-7-9-12-9----| x2
G|-9---9---7-9---7-9------7-9-7-9-7-9-7-9-12-9----|
E|------------------------------------------------|

Wow!!!............

e|------------------------|
B|------------------------|
G|-9~~~~~~~~~~------------|
D|-9~~~~~~~~~~------------|
G|-9~~~~~~~~~~------------|
E|------------------------|
Comments