T Rex - Children Of The Revolution Chords & Tabs

 

Children Of The Revolution Chords & Tabs

T Rex Chords & Tabs

Version: 1 Type: Tab 0 ratings
1 star 2 stars 3 stars 4 stars 5 stars
comments

Children Of The Revolution Tab

-------------------------------------------------------------------------------
			Children of the revolution - T-Rex
-------------------------------------------------------------------------------
Tabbed by: Matt "Strange Fruit" Long
Email: stoned_squizzal@hotmail.com
I couldnt believe this wasnt here, so i figured it out myself!
Tuning: EADGBe
[ Tab from: http://www.guitartabs.cc/tabs/t/t_rex/children_of_the_revolution_tab.html ]
Main Rhythm Riff
e|---------------------------------------------------------------------------|
B|---------------------------------------------------------------------------|
G|-------------------------------------5--3----------------------------------|
D|5-5--3/5--3/5---3/5-3/5-3/5-3/5-3/5--5--3----------------------------------|
A|5-5--3/5--3/5---3/5-3/5-3/5-3/5-3/5--3--1----------------------------------|
E|3-3--1/3--1/3---1/3 1/3-1/3-1/3-1/3----------------------------------------|

Just repeat this rythm bit again and again, i cant remember the chorus though :(
I will work on it!
Comments