T Rex - 20th Century Boy Chords & Tabs

 

20th Century Boy Chords & Tabs

T Rex Chords & Tabs

Version: 2 Type: Bass Tab 0 ratings
1 star 2 stars 3 stars 4 stars 5 stars
comments

20th Century Boy Bass Tab

Ok there are four main riffs to this

Intro Riff

G------------------------------------------------------------------------|
D------------------------------------------------------------------------|
A------------------------------------------------------------------------|
E0-0----0-0----000-0-3-0-3-0-3-0----------000-0-3-0-3-0-3-0-------------|

G------------------------------------------------------------------|
D------------------------------------------------------------------|
A------------------------------------------------------------------|
E000-0-3-0-3-0-3-0-------000-0-3-0-3-0-3-0------------------------|

Verse Riff

G----------------------------------------|
D----------------------------------------|
A----------------------------------------|
E5--5555--35--5555--35--5555555555555---|
[ Tab from: http://www.guitartabs.cc/tabs/t/t_rex/20th_century_boy_btab_ver_2.html ]
G-----------------------------------------|
D-----------------------------------------|
A-----------------------------------------|
E0-0-3-0-3-0-3-0---000-0-3-0-3-0-3-0-----|

Chorus Riff                                                       Followed by this on 
first chorus

G---------------------------------------------------  -----------------------------------------------|
D---------------------------------------------------  -----------------------------------------------|
A---------------------------------------------------  -----------------------------------------------|
E----55555777-7\---00-000-0--------------------  -000-0-3-0-3-0-3-0---000-0-3-0-3-0-3-0---------|

Bridge Riff

G-----------------------------------|
D--------------------5--------------|
A7---5-7-------7------7------------|
E-----------------------------------|

The order goes
Intro x1
Verse x2
Chorus x1 (with extra ending)
Verse x2
Chorus x1 (without extra ending)
Bridge x4
Verse x2
Chorus x1 (without extra ending)
Bridge x4 then there is a small outro but it is just mainly played on A
Comments