T Rex - 20th Century Boy Chords & Tabs

 

20th Century Boy Chords & Tabs

T Rex Chords & Tabs

Version: 1 Type: Bass Tab 0 ratings
1 star 2 stars 3 stars 4 stars 5 stars
comments

20th Century Boy Bass Tab

Main Riff:

----------------------------------------
----------------------------------------
----------------------------------------
--0~~-------------------0~~-------------

----------------------------------------
----------------------------------------
----------------------------------------
-0~-0-3-0-3-0-3-0-----0~-0-3-0-3-0-3-0--

Verse: "friends say its..."
[ Tab from: http://www.guitartabs.cc/tabs/t/t_rex/20th_century_boy_btab.html ]
----------------------------------------
---------5-7-7-5------------------------
-----5-7--------7-5---------------------
-5-7----------------7-5----------------- X2

Chorus: "its plain to see..."

----------------------------------------
----------------------------------------
----------7~----------------------------
--5~--7~--------------------------------

Chorus part 2: "20th century boy wana be your toy..."

----------------------------------------
----------------------------------------
---7~--5~/7-----7~/10/7-----------------
----------------------------------------
Comments