T-pain - Im In Love With A Stripper Chords & Tabs

 

Im In Love With A Stripper Chords & Tabs

T-pain Chords & Tabs

Version: 1 Type: Tab

Im In Love With A Stripper Tab

well this is my first tab so if its wrong dont get mad ^^
n im kinda bad at doin things by ear so yea
/ slide up
\ slide down
[ Tab from: http://www.guitartabs.cc/tabs/t/t_pain/im_in_love_with_a_stripper_tab.html ]
E |--------------------|
B |--------------------|
G |--------1/3---------|
D |------------3/5-----|
A |-----4/6--------1/3-|
E |--------------------|

E |--------------------|
B |--------------------|
G |--------1/3---------|
D |------------3/5-----|
A |-----3/5------------|
E |--------------------|

and thats just repeated throughout the entire song
if u find any mistakes feel free the correct me and hav fun ^^