Systematic - Dopestick Chords & Tabs

 

Dopestick Chords & Tabs

Systematic Chords & Tabs

Version: 1 Type: Tab 0 ratings
1 star 2 stars 3 stars 4 stars 5 stars
comments

Dopestick Tab

Author/Artist: Systematic
Title: Dopesick
Album: Somewhere In Between
Transcribed by: Rob K
Email: korncrypt@hotmail.com
Tuning : Standard C Tuning

visit terribleinstincts.homestead.com

NOTE: Figure out the Timing on your own, by listening to the song
Email me with Corrections or suggestion on my tab

Intro;
Gtr1
-|----18----------18----------17----------17------||
-|-15----15-15-15----15-15-14----14-14-14----14-14||
-|------------------------------------------------||
-|------------------------------------------------||
-|------------------------------------------------||
-|------------------------------------------------||
 |Gtr2                                            ||
-|------------------------------------------------||
-|------------------------------------------------||
-|-----0-----0-----0-----0-----0-----0-----0-----0||
-|--5-----5-----5-----5-----5-----5-----5-----5---||
-|------------------------------------------------||
-|------------------------------------------------||

This Comes in with intro the 3rd time
Gtr3
-|---------------|---------------|
-|---------------|---------------|
-|---------------|---------------|
-|-4/5/4-2-4/5-5-|-4/5\4-2-4-4-4-|
-|-4/5\4-2-4/5-5-|-4/5\4-2-4-4-4-|
-|-2/3\2-0-2/3-3-|-2/3\2-0-2-2-2-|
                                                                              
verse
All Gtrs
-|---------------|---------------|
-|---------------|---------------|
-|---------------|---------------|
-|-4/5/4-2-4/5-5-|-4/5\4-2-4-4-4-|
-|-4/5\4-2-4/5-5-|-4/5\4-2-4-4-4-|
-|-2/3\2-0-2/3-3-|-2/3\2-0-2-2-2-|

-|-----|
-|-----|
-|-----|
-|--5--|
-|--5--|
-|--3--|
  Fill before Chorus pm that a couple times                                   
[ Tab from: http://www.guitartabs.cc/tabs/s/systematic/dopestick_tab.html ]
-|-------|--------|--------|-------------|---------------|
-|-------|--------|--------|-------------|---------------|
-|--7----|--10----|--12----|------x2-----|---------------|
-|--x-x8-|---x-8x-|---x-x8-|-------------|-last 3 is--4b-|
-|--5----|---8----|--10----|-------------|---------------|
-|-------|--------|--------|-2h3-3-2h3-3-|---------------|
 chorus                                      last time

-|----------22-------------21----|
-|------20-------------19--------|
-|-------------------------------|close to that
-|----tremolo pick ...........---|
-|-------------------------------|
-|-------------------------------|
 over second verse      

-|---------|
-|---------|
-|---------|
-|---------|
-|---------|
-|-2h3-3-3-|
  pm...... over and over, eventually releasing pm

Solo
---15----15----15----15-------19p17p15-19p17p15-19p17p15-19p17p15---
---17b20-17b20-17b20-17b20-----t--------t--------t--------t---------
--------------------------------------------------------------------
--------------------------------------------------------------------
--------------------------------------------------------------------
--------------------------------------------------------------------

-19p17p15--15b-----15b-----15b-----------------|------------------
--t------------14b----14b------14b-14b-14b-14b-|------------------
-----------------------------------------------|--12-14-15-14-12--
-----------------------------------------------|------------------
-----------------------------------------------|--10-12-13-12-10--
-----------------------------------------------|------------------
                                                   w/wah
Not Sure of the rest of the solo

last chorus ends with this instead of
----------------------     ---------------
----------------------     ---------------
----------------------     ---------------
--x-x-x-x-x-x--x-x-x--     ---------------
--x-x-x-x-x-x--x-x-x--     ---------------
--x-x-x-x-x-x--x-x-x--     --2h3-3-2h3-3--


Play Intro Again
Comments