System Of A Down - X Chords & Tabs

 

X Chords & Tabs

System Of A Down Chords & Tabs

Version: 4 Type: Tab 0 ratings
1 star 2 stars 3 stars 4 stars 5 stars
comments

X Tab

   
Artist: System of a Down
Album: Toxicity
Track: 5
Song: X (Multiply)
Tabbed By: Jeff Tiemann (Heater794@aol.com)
Tuning: Drop C -  C-G-C-F-A-D

Intro

|---------------------|
|---------------------|
|--5-7-8-7-5----------| (11 TIMES)
|---------------------|
|---------------------|
|---------------------|

P.M, then slowly release with harmonics

Chorus

|--------------------------------------------|
|--------------------------------------------|
|-----------/8-8-8-8-------------------------|
|-----------/7-7-7-7-------------------------| (4 TIMES)
|-0-0-00-00------------00-00-00-0--10-12-13--|
|-0-0-00-00------------00-00-00-0--10-12-13--|

Verse 1

|----------------|
|----------------|              Do this the number
|----------------|              of times you think
|----------------|              is right
|-10-12-13-12-10-|
|-10-12-13-12-10-|

P.M really fast. Then when the drums get slower, play without P.M

Chorus
[ Tab from: http://www.guitartabs.cc/tabs/s/system_of_a_down/x_tab_ver_4.html ]
|--------------------------------------------|
|--------------------------------------------|
|-----------/8-8-8-8-------------------------|
|-----------/7-7-7-7-------------------------| (2 TIMES)
|-0-0-00-00------------00-00-00-0--10-12-13--|
|-0-0-00-00------------00-00-00-0--10-12-13--|

Verse 2

|----------------|
|----------------|      Do this a number of times
|----------------|
|----------------|
|-10-12-13-12-10-|
|-10-12-13-12-10-|

P.M really fast, then without... then before the intro P.M again

Chorus

|--------------------------------------------|
|--------------------------------------------|
|-----------/8-8-8-8-------------------------|
|-----------/7-7-7-7-------------------------| (2 TIMES)
|-0-0-00-00------------00-00-00-0--10-12-13--|
|-0-0-00-00------------00-00-00-0--10-12-13--|

Interlude

|----------------------------------------------|
|--------------------------15^----15^-------15^|
|----------------------------------------------| (4 TIMES)
|----------------------------------------------|
|-10-12-13-12--0-0-00-00-0------0------00-0----|
|-10-12-13-12--0-0-00-00-0------0------00-0----|

P.M-----------------------      -      ----

Verse 3

|----------------|
|----------------|   Do this a number of times
|----------------|
|----------------|
|-10-12-13-12-10-|
|-10-12-13-12-10-|

P.M really fast, then without
Comments