System Of A Down - X Chords & Tabs

 

X Chords & Tabs

System Of A Down Chords & Tabs

Version: 1 Type: Tab 3 ratings
1 star 2 stars 3 stars 4 stars 5 stars
comments

X Tab

Song: "X"
Artist: System of A Down
Album: Toxicity
Transcribed By: Bryan Bramlett (bryanmb87@aol.com)

INTRO: (palm mute, gradually release)
|---------------------------------|
|---------------------------------|
|-5-7-8-7-5-7-8-7-5-7-8-7-5-7-8-7-|
|---------------------------------|
|---------------------------------|
|---------------------------------|
[ Tab from: http://www.guitartabs.cc/tabs/s/system_of_a_down/x_tab.html ]
MAIN RIFF:
|------------------------------------------------|
|------------------------------------------------|
|----------------8/10-10-------------------------|
|-0--0--0-0--0-0-9/11-11--0-0--0--0-0--0-0-5/8-8-|
|-0--0--0-0--0-0----------0-0--0--0-0--0-0-3/6-6-|
|-0--0--0-0--0-0----------0-0--0--0-0--0-0-------|

VERSE: (palm mute during first half of verse, release second)
|---------------------------------|
|---------------------------------|
|---------------------------------|
|---------------------------------|
|-3-5-6-5-3-5-6-5-3-5-6-5-3-5-6-5-|
|---------------------------------|

INTERLUDE:
|-----------------------------------------------|
|-----------------------15^---15^-----------15^-|
|-----------------------------------------------|
|----------0--0--0-0--0-----0-----0--0-0--0-----|
|-3-5-6-5--0--0--0-0--0-----0-----0--0-0--0-----|
|----------0--0--0-0--0-----0-----0--0-0--0-----|
PM. . . .  .  .  . .  .     .     .  . .  .

Comments