System Of A Down - X (perfect) Chords & Tabs

 

X (perfect) Chords & Tabs

System Of A Down Chords & Tabs

Version: 1 Type: Tab 2 ratings
1 star 2 stars 3 stars 4 stars 5 stars
comments

X (perfect) Tab

Intro (Palm Muted) 
:---------------------
:---------------------
:---------------------
:-10p0-12p0-13p0-12p0-
:---------------------
:---------------------

Play that a few times, then gradually build into non-muted semi harmonic...
:-------------
:-------------
:-------------
:-10-12-13-12-
:-------------
:-------------

Pre-Verse
[ Tab from: http://www.guitartabs.cc/tabs/s/system_of_a_down/x_perfect_tab.html ]
:-------------------------------------------------------
:-------------------------------------------------------
:--------------9b-9b--9b--9-----------------------------
:-------------10b-10b-10b-10----------------------------
:0--0-0-0-0-0--------------0--0-0-0-0-0-0--10s13-13-13--
:0--0-0-0-0-0--------------0--0-0-0-0-0-0--10s13-13-13--

Verse (palm muted)
:-------------
:-------------
:-------------
:-------------
:-10-12-13-12-
:-10-12-13-12-

Bridge/Chorus
0's Palm Muted
:--------------10b-----10b---10b-----
:------------------------------------
:------------------------------------
:------------------------------------
:0---0-0-0-0-0-----0-0-----0-----0000
:0---0-0-0-0-0-----0-0-----0-----0000
Comments