System Of A Down - X Chords & Tabs

 

X Chords & Tabs

System Of A Down Chords & Tabs

Version: 2 Type: Bass Tab 0 ratings
1 star 2 stars 3 stars 4 stars 5 stars
comments

X Bass Tab

(EADG)


Here are the Bass Tabs to X #5 off of Toxicity

Intro

|--------------------------|
|--------------------------|
|--5--55--5--55-55---------|
|--------------------------|

ver 1

|------------------------------|
|------------------------------|
|-----------8888----------566--|
|-0-0-0-0-0------0-0-0-0-0-----|(x4or5)

Ver 2

|---------------|
|---------------|
|-3-5-6-5-------|
|---------------|(X10) PLAY REALLY FAST
TELL THE PEOPLE,TELL THE PEOPLE THAT ARIVE...

[ Tab from: http://www.guitartabs.cc/tabs/s/system_of_a_down/x_btab_ver_2.html ]
|------------------------------|
|------------------------------|
|-----------8888----------566--|
|-0-0-0-0-0------0-0-0-0-0-----|(x2)
 right after ver 2

|---------------|
|---------------|
|-3-5-6-5-------|
|---------------|(X15) play really fast


|------------------------------|
|------------------------------|
|-----------8888----------566--|
|-0-0-0-0-0------0-0-0-0-0-----|(x2)
 
You could play along with the guitar in this next part

|---------10--10-10-----|
|-----------------------|
|-----------------------|
|-0-0-0-00---0--0--9999-|(x4)


|---------------|
|---------------|
|-3-5-6-5-------|
|---------------|(X15) play really fast

That is it that is all.  Short,easy,and cool

Now get out their and play this song
Comments