System Of A Down - We Dont Give A Chords & Tabs

 

We Dont Give A Chords & Tabs

System Of A Down Chords & Tabs

Version: 1 Type: Tab 0 ratings
1 star 2 stars 3 stars 4 stars 5 stars
comments

We Dont Give A Tab

   
Band- System Of A Down
Song- We Don't Give A

Intro
(rhythm might be a bit off, but you get the idea)
|--10--10-10--10-10-10-10b--10-10--10-10-10--10--10-10--10-10-10-10b--|
|---------------------------------------------------------------------|
|---------------------------------------------------------------------|
|---------------------------------------------------------------------|
|---------------------------------------------------------------------|
|---------------------------------------------------------------------|

|--10-10-10--10-10b--10-10-10--10-10b--10-10-10--10-10b--10-10-10--10-10b-|
|-------------------------------------------------------------------------|
|-------------------------------------------------------------------------|
|-------------------------------------------------------------------------|
|-------------------------------------------------------------------------|
|-------------------------------------------------------------------------|

Riff A
               p.m.          ...          ...      
|--------------------------------------------------------------|
|--------------------------------------------------------------|
|--7-------------7------------7------------7-------------------|
|--------------------------------------------------------------|
|--5--0-0-0-0--0-5-0-0-0-0--0-5-0-0-0-0--0-5-0-0-0-0--0-3-5-6--|
|--0--0-0-0-0--0---0-0-0-0--0---0-0-0-0--0---0-0-0-0--0--------|

Riff B

|-----------------------------------------------------|
|-----------------------------------------------------|
|-----------------------------------------------------|
|------------------------------------6-6-6-6----------|
|-1-1-1-1-/7-7-7-7--0-0-0-0-/6-6-6-6-4-4-4-4-5-5-5-5--|
|-1-1-1-1-/7-7-7-7--0-0-0-0-/6-6-6-6---------5-5-5-5--|

Riff C
p.m...............................................................
|-----------------------------------------------------------------|
|-----------------------------------------------------------------|
|-----------------------------------------------------------------|
|-----------------------------------------------------------------|
|-----------------------------------------------------------------|
|-0-0-0-0-0-0-0-0-0-0-0-0-0-0-0-0-0-0-0-0-0-0-0-0-0-0-0-0-0-0-0-0-|
[ Tab from: http://www.guitartabs.cc/tabs/s/system_of_a_down/we_dont_give_a_tab.html ]
Riff D (verse)
|-----------------------------------------------------------------------------------------------------------------|
|-----------------------------------------------------------------------------------------------------------------|
|-10-10-10-10-10-10-10-10-10-10-9-9-9-9-9-9-9-9-9-9-12-12-12-12-12-12-12-12-12-12-10-10-10-10-10-10-10-10-10-10-10|
|-----------------------------------------------------------------------------------------------------------------|
|-8--8--8--8--8--8--8--8--8--8--7-7-7-7-7-7-7-7-7-7-10-10-10-10-10-10-10-10-10-10-8--8--8--8--8--8--8--8--8--8--8-|
|-----------------------------------------------------------------------------------------------------------------|

|-------------------------------------------------------------|
|-------------------------------------------------------------|
|-14-14-14-14-14-14-14-14-14-14-12-12-12-12-12-12-12-12-12-12-|
|-------------------------------------------------------------|
|-12-12-12-12-12-12-12-12-12-12-10-10-10-10-10-10-10-10-10-10-|
|-------------------------------------------------------------|

|-------------------------------------------------------------|
|-------------------------------------------------------------|
|-16-16-16-16-16-16-16-16-16-16-14-14-14-14-14-14-14-14-14-14-|
|-------------------------------------------------------------|
|-14-14-14-14-14-14-14-14-14-14-12-12-12-12-12-12-12-12-12-12-|
|-------------------------------------------------------------|

Riff E (Pre Chorus)
|-----------------------10b--------------------------------------10b--|
|---------------------------------------------------------------------|
|--7---7--7---7--7--7-------7--7---7--7--7---7---7--7---7--7--7-------|
|---------------------------------------------------------------------|
|---------------------------------------------------------------------|
|---------------------------------------------------------------------|

|---------------10b---------------10b---------------10b---------------10b-|
|-------------------------------------------------------------------------|
|--7--7--7---7-------7--7--7---7-------7--7--7---7-------7--7--7---7------|
|-------------------------------------------------------------------------|
|-------------------------------------------------------------------------|
|-------------------------------------------------------------------------|

Riff F (in the middle of the chorus)
n.h.      ...
|-------------------|
|-------------------|
|-------------------|
|----------5--------|
|-5-----------------|
|---0-0-0----0-0-0--|

Riff H (interlude)
n.h......................
|------------------------|
|------------------------|
|------------------------|
|-----5-----5-----5-----5|
|--5-----5-----5-----5---|
|------------------------|
Comments