System Of A Down - War Chords & Tabs

 

War Chords & Tabs

System Of A Down Chords & Tabs

Version: 3 Type: Tab 0 ratings
1 star 2 stars 3 stars 4 stars 5 stars
comments

War Tab

War? by System of a Down
Tabbed by Jason

I noticed that someone requested this, and I'm surprised this 
site doesn't have this song. Since I can play it I figured I
might as well post it so here you are: System of a Down's War?,
in all its glory
List en to the CD for the rhythm
Tuning: Drop C (drop D down a step, or CDCFAD)

Intro
|-------------------------------------------------------------xxxxx|
|-------------x---------------x-----------8---8---------------xxxxx|
|-8-7-8-7-x-x---x-8-7-8-7-x-x---x-8-7-8-7---7---7-8-7-8-7-xxxx-----|
|------------------------------------------------------------------|
|------------------------------------------------------------------|
|------------------------------------------------------------------|
[ Tab from: http://www.guitartabs.cc/tabs/s/system_of_a_down/war_tab_ver_3.html ]
Chorus
|-----------------------------------------------------|
|-----------------------------------------------------|
|-----------------------------10-------------11-------|
|-0-0-6-6-0-0-0-0-8-8-0-0-0-0-x--6-0-0-0-0-0-x--6-0-0-|
|-0-0-6-6-0-0-0-0-8-8-0-0-0-0-8--6-0-0-0-0-0-9--6-0-0-|
|-0-0-6-6-0-0-0-0-8-8-0-0-0-0----6-0-0-0-0-0----6-0-0-|

Verse 
|---------|---------|-xxxxxxxx-|
|---------|---------|-xxxxxxxx-|
|---------|---------|-xxxxxxxx-|
|-1-0-1-0-|-0-5-0-5-|----------|
|-1-0-1-0-|-0-5-0-5-|----------|
|-1-0-1-0-|-0-5-0-5-|----------|
(These are the parts used, figure it out yourself)

Bridge
|-----------------------|------------|------------|
|-----------------------|------------|------------|
|-----------------------|------------|------------|
|-0-12-14-15-0-15-14-12-|-0-15-14-12-|-0-12-14-15-|
|-----------------------|------------|------------|
|-----------------------|------------|------------|

|-----------------------|
|-----------------------|
|--------------------15-|
|-0-12-14-15-0-12-14----|
|-----------------------|
|-----------------------|

That should be about all the riffs, if you have any questions or 
comments email me at powerkordz@aol.com.
Comments