System Of A Down - War Chords & Tabs

 

War Chords & Tabs

System Of A Down Chords & Tabs

Version: 2 Type: Bass Tab 0 ratings
1 star 2 stars 3 stars 4 stars 5 stars
comments

War Bass Tab

indications:
 * means slide your finger to the other number 

intro (after the guitar solo)

--------------------------------------------------|
--------------------------------------------------| x2
--------------------------------------------------|                   0-5-0-0-3-2-0-5-0-0-3-2-0-7-0-0-3-2-0-9-0-0-3-2--|

p.2   x4 (dark is...)                          
--------|----------|
--------|----------|    this part    x2
--------|----------|
-1-0-1-0|--6-0-6-0-|

           x3    (to whom was sold...)           x3
-----------------|-----------------|-----------------|--------|
-----------------|-----------------|-----------------|--------|
-----------------|-----------------|-----------------|--------|
-1-1-1-1-3-3-3-3-|-1-1-1-1-6-6-6-6-|-1-1-1-1-3-3-3-3-|-5*1----|




intro-chorus (we will fight the heatens)



p.2



2nd. chorus:
[ Tab from: http://www.guitartabs.cc/tabs/s/system_of_a_down/war_btab_ver_2.html ]
--------------------------------------------------|
--------------------------------------------------| x2
--------------------------------------------------|                   0-5-0-0-3-2-0-5-0-0-3-2-0-7-0-0-3-2-0-9-0-0-3-2--|


-------------------------------------------|
-------------------------------------------| x2
-------------------------------------------|
-3-3-1-1-3-3--3-3-1-1-3-3-2-5-0-0-3-2-0-9--|

   


(calm part) do whatever you want!




p.3  (of war)
        x11
------------|
------------|
------------|
-1-1-1-1-1--|

3rd. chorus 

--------------------------------------------------|
--------------------------------------------------| x2
--------------------------------------------------|                   0-5-0-0-3-2-0-5-0-0-3-2-0-7-0-0-3-2-0-9-0-0-3-2--|


-------------------------------------------|
-------------------------------------------| x2
-------------------------------------------|
-3-3-1-1-3-3--3-3-1-1-3-3-2-5-0-0-3-2-0-9--|
Comments