System Of A Down - Voilent Pornography Chords & Tabs

 

Voilent Pornography Chords & Tabs

System Of A Down Chords & Tabs

Version: 1 Type: Bass Tab 0 ratings
1 star 2 stars 3 stars 4 stars 5 stars
comments

Voilent Pornography Bass Tab

   
Band- System Of A Down
Song- Voilent Pornography

Gtr I (Db Ab Db Gb) - 'Untitled'

 Intro
  Q=143
 4/4
  Gtr I
  W          W          W          W
|----------|----------|----------|------|
|----------|----------|----------|------|
|----------|----------|----------|------|
|-0--------|-4--------|-5--------|-7----|


  W           W
|----------|-------|
|----------|-------|
|----------|-------|
|-8--------|-10----|


  W          W          W          W
|----------|----------|----------|------|
|----------|----------|----------|------|
|----------|----------|----------|------|
|-0--------|-4--------|-5--------|-7----|


  W           H..       E
|----------|--------------|
|----------|--------------|
|----------|------------5-|
|-8--------|-10-----------|


   Verse
    E E H    E E   E E H    E E   E E H    E E
||---------------|--------------|--------------|
||o--------------|--------------|--------------|
||o-6----------6-|-7----------7-|-6----------6-|
||---------------|--------------|--------------|


  1.               2.
  E E H    E E     E E H     E  +E
|---------------||---------------------|
|--------------o||---------------------|
|-5----------5-o||-5-------------------|
|---------------||----------12-(12)\---|


 Chorus
  S +S  S +S  S +S  S S +S  S S S S +S  S S   +S  S S S S +S  S S E. E. E
|-------------------------------------------|------------------------------|
|-------------------------------------------|------------------------------|
|-------------------------------------------|------------------------------|
|-0-(0)-0-(0)-0-(0)-0-0-(0)-0-0-0-0-(0)-0-0-|-(0)-0-0-0-0-(0)-0-0-1--3--4--|


  S +S  S +S  S +S  S S +S  S S S S +S  S S   +S  S S S S +S  S S E. E. E
|-------------------------------------------|------------------------------|
|-------------------------------------------|------------------------------|
|-------------------------------------------|------------------------------|
|-0-(0)-0-(0)-0-(0)-0-0-(0)-0-0-0-0-(0)-0-0-|-(0)-0-0-0-0-(0)-0-0-4--3--1--|


  E E q  S S S S q    S S S S q  E. E. E
|-------------------|--------------------|
|-------------------|--------------------|
|-------------------|--------------------|
|-0-0-0--0-0-0-0-0--|-0-0-0-0-0--1--3--4-|


  E E E S S S S E S S S S   E S S S S S S E. E. E
|-------------------------|-----------------------|
|-------------------------|-----------------------|
|-------------------------|---------------------5-|
|-0-0-0-0-0-0-0-0-0-0-0-0-|-0-0-0-0-0-0-0-4--3----|


   Verse
    E E H    E E   E E H    E E   E E H    E E
||---------------|--------------|--------------|
||o--------------|--------------|--------------|
||o-6----------6-|-7----------7-|-6----------6-|
||---------------|--------------|--------------|


  1.               2.
  E E H    E E     E E H     E  +E
|---------------||---------------------|
|--------------o||---------------------|
|-5----------5-o||-5-------------------|
|---------------||----------12-(12)\---|


 Chorus
  S +S  S +S  S +S  S S +S  S S S S +S  S S   +S  S S S S +S  S S E. E. E
|-------------------------------------------|------------------------------|
|-------------------------------------------|------------------------------|
|-------------------------------------------|------------------------------|
|-0-(0)-0-(0)-0-(0)-0-0-(0)-0-0-0-0-(0)-0-0-|-(0)-0-0-0-0-(0)-0-0-1--3--4--|


  S +S  S +S  S +S  S S +S  S S S S +S  S S   +S  S S S S +S  S S E. E. E
|-------------------------------------------|------------------------------|
|-------------------------------------------|------------------------------|
|-------------------------------------------|------------------------------|
|-0-(0)-0-(0)-0-(0)-0-0-(0)-0-0-0-0-(0)-0-0-|-(0)-0-0-0-0-(0)-0-0-4--3--1--|


  E E q  S S S S q    S S S S q  E. E. E
|-------------------|--------------------|
|-------------------|--------------------|
|-------------------|--------------------|
|-0-0-0--0-0-0-0-0--|-0-0-0-0-0--1--3--4-|


  E E E S S S S E S S S S   E S S S S S S E. E. E
|-------------------------|-----------------------|
|-------------------------|-----------------------|
|-------------------------|-----------------------|
|-0-0-0-0-0-0-0-0-0-0-0-0-|-0-0-0-0-0-0-0-4--3--1-|


 Bridge
  W          W          W          W
|----------|----------|----------|------|
|----------|----------|----------|------|
|----------|----------|----------|------|
|-0--------|-4--------|-5--------|-7----|


  W           W           W          W
|----------|-----------|-----------|------|
|----------|-----------|-----------|------|
|----------|-----------|-----------|------|
|-8--------|-10--------|-12--------|-8----|


  Q  E E E E E E   Q  E E E E E E   Q  E E E E E E   Q  E E E E E E
|----------------|----------------|----------------|----------------|
|----------------|----------------|----------------|----------------|
|----------------|----------------|----------------|----------------|
|-0--0-0-0-0-0-0-|-4--4-4-4-4-4-4-|-5--5-5-5-5-5-5-|-7--7-7-7-7-7-7-|

[ Tab from: http://www.guitartabs.cc/tabs/s/system_of_a_down/voilent_pornography_btab.html ]
  Q  E E E E E E    Q   E  E  E  E  E  E
|----------------|-----------------------|
|----------------|-----------------------|
|----------------|-----------------------|
|-8--8-8-8-8-8-8-|-10--10-10-10-10-10-10-|


   Q   E  E  E  E  E  E   Q  E E E E E E
|-----------------------|----------------|
|-----------------------|----------------|
|-----------------------|--------------5-|
|-12--12-12-12-12-12-12-|-8--8-8-8-8-8---|


   Verse
    E E H    E E   E E H    E E   E E H    E E
||---------------|--------------|--------------|
||o--------------|--------------|--------------|
||o-6----------6-|-7----------7-|-6----------6-|
||---------------|--------------|--------------|


  1.               2.
  E E H    E E     E E H     E  +E
|---------------||---------------------|
|--------------o||---------------------|
|-5----------5-o||-5-------------------|
|---------------||----------12-(12)\---|


 Chorus
  S +S  S +S  S +S  S S +S  S S S S +S  S S   +S  S S S S +S  S S E. E. E
|-------------------------------------------|------------------------------|
|-------------------------------------------|------------------------------|
|-------------------------------------------|------------------------------|
|-0-(0)-0-(0)-0-(0)-0-0-(0)-0-0-0-0-(0)-0-0-|-(0)-0-0-0-0-(0)-0-0-1--3--4--|


  S +S  S +S  S +S  S S +S  S S S S +S  S S   +S  S S S S +S  S S E. E. E
|-------------------------------------------|------------------------------|
|-------------------------------------------|------------------------------|
|-------------------------------------------|------------------------------|
|-0-(0)-0-(0)-0-(0)-0-0-(0)-0-0-0-0-(0)-0-0-|-(0)-0-0-0-0-(0)-0-0-4--3--1--|


  E E q  S S S S q    S S S S q  E. E. E
|-------------------|--------------------|
|-------------------|--------------------|
|-------------------|--------------------|
|-0-0-0--0-0-0-0-0--|-0-0-0-0-0--1--3--4-|


  E E E S S S S E S S S S   E S S S S S S E. E. E
|-------------------------|-----------------------|
|-------------------------|-----------------------|
|-------------------------|-----------------------|
|-0-0-0-0-0-0-0-0-0-0-0-0-|-0-0-0-0-0-0-0-4--3--1-|


   Interlude
    W          H.      +Q     W          W
||-----------|--------------|----------|------|
||o----------|--------------|----------|------|
||o----------|--------------|----------|------|
||--0--------|-4-------(4)S=|=5--------|-7----|


  W           W           H.       +Q     W
|----------|-----------|----------------|-------||
|----------|-----------|----------------|------o||
|----------|-----------|----------------|------o||
|-8--------|-10--------|-12-------(12)S=|=8-----||


 Out-Chorus
  Q  E E E E E E   Q  E E E E E E   Q  E E E E E E   Q  E E E E E E
|----------------|----------------|----------------|----------------|
|----------------|----------------|----------------|----------------|
|----------------|----------------|----------------|----------------|
|-0--0-0-0-0-0-0-|-4--4-4-4-4-4-4-|-5--5-5-5-5-5-5-|-7--7-7-7-7-7-7-|


  Q  E E E E E E    Q   E  E  E  E  E  E
|----------------|-----------------------|
|----------------|-----------------------|
|----------------|-----------------------|
|-8--8-8-8-8-8-8-|-10--10-10-10-10-10-10-|


   Q   E  E  E  E  E  E   Q  E E E E E E
|-----------------------|----------------|
|-----------------------|----------------|
|-----------------------|----------------|
|-12--12-12-12-12-12-12-|-8--8-8-8-8-8-8-|


 Outro
  W          W          W          W
|----------|----------|----------|------|
|----------|----------|----------|------|
|----------|----------|----------|------|
|-0--------|-4--------|-5--------|-7----|


  W           W           W          W
|----------|-----------|-----------|------|
|----------|-----------|-----------|------|
|----------|-----------|-----------|------|
|-8--------|-10--------|-12--------|-8----|


   W          W
|-----------|------|
|-----------|------|
|-----------|------|
|-12--------|-8----|


  W          W          W          W
|----------|----------|----------|------|
|----------|----------|----------|------|
|----------|----------|----------|------|
|-0--------|-4--------|-5--------|-7----|


  W           W
|----------|-------|
|----------|-------|
|----------|-------|
|-8--------|-10----|


  W          W          W          W
|----------|----------|----------|------|
|----------|----------|----------|------|
|----------|----------|----------|------|
|-0--------|-4--------|-5--------|-7----|


  H.=H                    Q=90
  W           H    H      W          +W
|----------|------------|----------|--------*|
|----------|------------|----------|--------*|
|----------|------------|----------|--------*|
|-8--------|-10----8----|-0--------|-(0)----*|



***************************************************************************************
* Generated using Power Tab Editor by Brad Larsen - http://powertab.guitarnetwork.org *
***************************************************************************************
Comments