System Of A Down - Violent Pornography Chords & Tabs

 

Violent Pornography Chords & Tabs

System Of A Down Chords & Tabs

Version: 2 Type: Tab 7 ratings
1 star 2 stars 3 stars 4 stars 5 stars
comments

Violent Pornography Tab

VIOLENT PORNOGRAPHY
 SYSTEM OF A DOWN
                                                       by Abe I. Márquez 

If your already familiar with the song and its timing you’ll have no problem reading this tabs. 
     INTRO
E ---------------------------------------------------
B --------------------------------5------------------
G ----1-2-4~-5-4-2-5-4-2-1/2-1~ -2---5----------------
D ---------------------------------------------------
A --2------------------------------------------------
E --0------------------------------------------------
  
E ---------------------------------------------------
B --------------------------------5------------------
G ----1-2-4~-5-4-2-5-4-2-1/2-1~ -2---5----------------
D ---------------------------------------------------
A --2------------------------------------------------
E --0------------------------------------------------
  FIRST VERSE every body…
E ---------------------------------------------------
B ---------------------------------------------------
G ---------------------------------------------------
D ---------------------------------------------------
A --2-3--3-4--4-3--3-2-------------------------------
E --0-1--1-2--2-1--1-0-------------------------------

E ---------------------------------------------------
B ---------------------------------------------------
G ---------------------------------------------------
D ---------------------------------------------------
A --2-3--3-4--4-3--3-2-------------------------------
E --0-1--1-2--2-1--1-0-------------------------------

  CHORUS (ADD THE distorcion pedal)
E ---------------------------------------------------
B ---------------------------------------------------
G ---------------------------------------------------
D ---------------------------------------------------
A –-2-eight times then-2-3-4-------------------------
E --0------------------0-1-2-------------------------

E ---------------------------------------------------
B ---------------------------------------------------
G ---------------------------------------------------
D ---------------------------------------------------
A –-2-eight times then-4-3-2-------------------------
E --0------------------2-1-0-------------------------

E ---------------------------------------------------
B ---------------------------------------------------
G ---------------------------------------------------
D ---------------------------------------------------
A –-2-eight times (slower) then-2-3-4----------------
E --0---------------------------0-1-2----------------




E ---------------------------------------------------
B ---------------------------------------------------
G ---------------------------------------------------
D ---------------------------------------------------
A –-2-eight times (faster) then-2-3-4----------------
E --0---------------------------0-1-2----------------
  SECOND VERSE every body…
E ---------------------------------------------------
B ---------------------------------------------------
G ---------------------------------------------------
D ---------------------------------------------------
A --2-3--3-4--4-3--3-2-------------------------------
E --0-1--1-2--2-1--1-0-------------------------------

E ---------------------------------------------------
B ---------------------------------------------------
G ---------------------------------------------------
D ---------------------------------------------------
A --2-3--3-4--4-3--3-2-------------------------------
E --0-1--1-2--2-1--1-0-------------------------------
  
  CHORUS (AGAIN ADD THE distorcion)
E ---------------------------------------------------
B ---------------------------------------------------
G ---------------------------------------------------
D ---------------------------------------------------
A –-2-eight times then-2-3-4-------------------------
E --0------------------0-1-2-------------------------

E ---------------------------------------------------
B ---------------------------------------------------
G ---------------------------------------------------
D ---------------------------------------------------
A –-2-eight times then-4-3-2-------------------------
E --0------------------2-1-0-------------------------

E ---------------------------------------------------
B ---------------------------------------------------
G ---------------------------------------------------
D ---------------------------------------------------
A –-2-eight times (slower) then-2-3-4----------------
E --0---------------------------0-1-2----------------

E ---------------------------------------------------
B ---------------------------------------------------
G ---------------------------------------------------
D ---------------------------------------------------
A –-2-eight times (faster) then-2-3-4----------------
E --0---------------------------0-1-2----------------
[ Tab from: http://www.guitartabs.cc/tabs/s/system_of_a_down/violent_pornography_tab_ver_2.html ]
    BRIDGE it’s a violent …
E ---------------------------------------------------
B ---------------------------------------------------
G ---------------------------------------------------
D -------2-5-7-9-3-----------------------------------
A -2-4-5-4-3-5-7-5-----------------------------------
E -0-6-7---------------------------------------------
    




 AGAIN ONLY THIS TIME HIT IT MORE THEN ONES 
E ---------------------------------------------------
B ---------------------------------------------------
G ---------------------------------------------------
D -------2-5-7-9-3-----------------------------------
A -2-4-5-4-3-5-7-5-----------------------------------
E -0-6-7---------------------------------------------

    THIRD VERSE every body…
E ---------------------------------------------------
B ---------------------------------------------------
G ---------------------------------------------------
D ---------------------------------------------------
A --2-3--3-4--4-3--3-2-------------------------------
E --0-1--1-2--2-1--1-0-------------------------------

E ---------------------------------------------------
B ---------------------------------------------------
G ---------------------------------------------------
D ---------------------------------------------------
A --2-3--3-4--4-3--3-2-------------------------------
E --0-1--1-2--2-1--1-0-------------------------------


  CHORUS (DON’T FORGET THE distorcion)
E ---------------------------------------------------
B ---------------------------------------------------
G ---------------------------------------------------
D ---------------------------------------------------
A –-2-eight times then-2-3-4-------------------------
E --0------------------0-1-2-------------------------

E ---------------------------------------------------
B ---------------------------------------------------
G ---------------------------------------------------
D ---------------------------------------------------
A –-2-eight times then-4-3-2-------------------------
E --0------------------2-1-0-------------------------

E ---------------------------------------------------
B ---------------------------------------------------
G ---------------------------------------------------
D ---------------------------------------------------
A –-2-eight times (slower) then-2-3-4----------------
E --0---------------------------0-1-2----------------

E ---------------------------------------------------
B ---------------------------------------------------
G ---------------------------------------------------
D ---------------------------------------------------
A –-2-eight times (faster) then-2-3-4----------------
E --0---------------------------0-1-2----------------

     SMALL  BRIDGE no lyrics
E ---------------------------------------------------
B ---------------------------------------------------
G ---------------------------------------------------
D -------2-5-7-9-3-----------------------------------
A -2-4-5-4-3-5-7-5-----------------------------------
E -0-6-7---------------------------------------------
     
     BRIDGE it’s a violent …
E ---------------------------------------------------
B ---------------------------------------------------
G ---------------------------------------------------
D -------2-5-7-9-3-----------------------------------
A -2-4-5-4-3-5-7-5-----------------------------------
E -0-6-7---------------------------------------------
    
      AGAIN ONLY THIS TIME HIT IT MORE THEN ONES 
E ---------------------------------------------------
B ---------------------------------------------------
G ---------------------------------------------------
D -------2-5-7-9-3-----------------------------------
A -2-4-5-4-3-5-7-5-----------------------------------
E -0-6-7---------------------------------------------
      ONE MORE TIME hit only ones
E ---------------------------------------------------
B ---------------------------------------------------
G ---------------------------------------------------
D -------2-5-7-9-3-9-3-------------------------------
A -2-4-5-4-3-5-7-5-7-5-------------------------------
E -0-6-7---------------------------------------------
     OUTRO same as intro                            can you say brain …
E ---------------------------------------------------
B --------------------------------5------------------
G ----1-2-4~-5-4-2-5-4-2-1/2-1~ -2---5----------------
D ---------------------------------------------------
A --2------------------------------------------------
E --0------------------------------------------------
                                                                       Its a non stop disco…
E ---------------------------------------------------
B --------------------------------5------------------
G ----1-2-4~-5-4-2-5-4-2-1/2-1~ -2---5----------------
D ---------------------------------------------------
A --2------------------------------------------------
E --0------------------------------------------------

And that’s all 
Thanks for your time and patients 

And remember the 3 key words for perfection: 
                                                         1-PRACTICE
                                                         2-PRACTICE
                                                         3-PRACTICE


Comments