System Of A Down - Vicinity Of Obscenity Chords & Tabs

 

Vicinity Of Obscenity Chords & Tabs

System Of A Down Chords & Tabs

Version: 2 Type: Bass Tab

Vicinity Of Obscenity Bass Tab

   
Tabbed By: Derek Tilton
e-mail: tiltonda@plu.edu

This song is mostly a mess of noise, but it has some cool riffs
This tab will include the bass part, with the occasional guitar part tabbed for bass, 
it is cool and I dont like waiting for the guitar and the bass can play it too!


Intro: (This is hard to hear, but play anything like this as fast as you can and it will sound fine)

G-----------------------------------------------------------------|
D-----------------------------------------------------------------|
A-----------------------------------------------------------------|
E-1-3-4-3-1-3-1-0-1-3-4-3-1-3-1-0-1-3-4-3-1-3-1-0-1-3-4-3-1-3-1-0-|


Main Riff: (Bass doesnt play, but here it is if you want too)

**This {} around notes means triplets**

G---------{Triplets}-------6-5-------------6-5-----6-5--------|
D-{3-5-6-3-5-6-3-5-6-3-5-6}-----6-5-{3-5-6}----6-5-----6-5-3--|
A-------------------------------------------------------------|
E-------------------------------------------------------------|
[ Tab from: http://www.guitartabs.cc/tabs/s/system_of_a_down/vicinity_of_obscenity_btab_ver_2.html ]
*Here it is again down one octave, where you will usually play it:*
G--------------------------------------------------------------|
D--------------------------------------------------------------|
A---------------------------4-3-------------4-3-----4-3--------|
E-{1-3-4-1-3-4-1-3-4-1-3-4}-----4-3-{1-3-4}-----4-3-----4-3-1--|


Verse:
G-----------------------------------------------------------|
D-----------------------------------------------------------|No Bass Here, but this is it]
A---------------------------------4-3-----4-3----4-3--------|
E-1-3-4-3-1-3-1-0-1-3-4-3-1-3-1-0-----4-3----4-3-----4-3-1--|
(Repeat 4X)

Interlude:
G------------|
D------------|
A-4-3--------|
E-----4-3-1--|
(Repeat 4X)

*Main Riff (2X)

Bridge:   [Guitar]       [Guitar]       [Guitar]       [Guitar]
G----------15-15----------15-15----------15-15----------15-15-|
D----------11-11----------11-11----------11-11----------11-11-|
A----------13-13----------13-11----------13-13----------13-13-|
E-2--4--6--------6--4--2--------2--4--6--------6--4--2--------|
(Repeat once)

*Main Riff (2X) 

*Verse (once)

*Interlude (4X)

*Main Riff (2X)

*Bridge (2X) then:

G---------------------------------|
D---------------------------------|
A---------------------------------|
E-2-2-2-2-2-2-2-2-4-4-4-4-4-4-4-4-|

*Intro (4X)

*Main Riff (4X)

Hope You enjoyed this, just practice slow for a while then play it REALLY fast when performing!

From,
           Derek Tilton