System Of A Down - Toxicity Chords & Tabs

 

Toxicity Chords & Tabs

System Of A Down Chords & Tabs

Version: 26 Type: Tab 0 ratings
1 star 2 stars 3 stars 4 stars 5 stars
comments

Toxicity Tab

INTRO (0:00) --> Enter bass at 0:10
G |-----0--0----0-3-------|      |------------------------|
D |-0-3-------------0--0--| x3   |-0----------------0--0--|
A |-----------------------|      |---4-3--3--3--3-4-------|
D |-----------------------|      |------------------------|
        .  .        .  .                .  .


VERSE (0:20)
G |-------------------|
D |-5~~~~---5m---5\0--|
A |-------------------|
D |-------------------|
            .    .


PRECHORUS (0:29)
G |---------|      |-----------|
D |---------| x8   |-----------|
A |----5-4--|      |-----------|
D |-5-------|      |-5-5-5-5m--|
    .                     .

[ Tab from: http://www.guitartabs.cc/tabs/s/system_of_a_down/toxicity_tab_ver_26.html ]
CHORUS (0:38)
G |--------------------------------------------------------------------|
D |--------------------------------------------------------------------|
A |--------------------------------------------------------------------|
D |-5-5-5--55--555---3-3-3--33--333---2-2-2--22--222---0-0-0--00--000--|
    . . .  ..        . . .  ..        . . .  ..        . . .  ..

G |--------------------------------------------------------------|
D |--------------------------------------------------------------|
A |--------------------------------------------------------------|
D |-5-5-5--55--555---3-3-3--33--333---2-2-2--22--222---0-0-0-0m--|
    . . .  ..        . . .  ..        . . .  ..


POST CHORUS (0:57)
G |-----0--0----0-3-------|      |-----------------------------|
D |-0-3-------------0--0--| x3   |-0---------------------------|
A |-----------------------|      |---4-3--3--3--3-1------------|
D |-----------------------|      |-------------------5--55-3m--|
        .  .        .  .                  .  .       .


VERSE (1:08)
G |--------------------|
D |-5~~~~--5-5m---5\0--|
A |--------------------|
D |--------------------|
              .    .
Comments