System Of A Down - Toxicity Chords & Tabs

 

Toxicity Chords & Tabs

System Of A Down Chords & Tabs

Version: 25 Type: Tab 0 ratings
1 star 2 stars 3 stars 4 stars 5 stars
comments

Toxicity Tab

*INTRO*


E-----7----7----7----7----7----7----10---10---10---10----10---10---7----7-----7-8----8-7-7------|
B---5----5----5----5----5----5----8-----8-----8-----8-----8-----8-----5----5-----5------5----5--|
G-----------------------------------------------------------------------------------------------|
D-----------------------------------------------------------------------------------------------|
A-----------------------------------------------------------------------------------------------|
E-----------------------------------------------------------------------------------------------|

E--------10----12---12---10----10---8----8---|
B------8------8-----8-----------8---------8--|
G--------------------------------------------|
D--------------------------------------------|
A--------------------------------------------|
E--------------------------------------------|

CHORUS PART

E----------------------------------------------------------------------------------------------|
B----------------------------------------------------------------------------------------------|
G----------------------------------------------------------------------------------------------|
D----------------------------------------------------------------------------------------------|   x2
A-------------------------------------------------6---6-6-6--- x-x-x-x----5---5-5-5---x-x-x-x--|
E-----0----------3--2--0--2--0----------------6---6-6-6---x-x-x-x----5---5-5-5---x-x-x-x-------|

E-----------------------------------------------------------------|
B-----------------------------------------------------------------|
G-----------------------------------------------------------------|
D-----------------------------------------------------------------|
A-----------------------------------------------------------------|
E------3-2-0-2-0--x-x-x-x-x-x-----3-2-0-2-0---x-x-x-x-x-x---------|

E----------------------------------------------------------------------------------------------|
B----------------------------------------------------------------------------------------------|
G----------------------------------------------------------------------------------------------|
D----------------------------------------------------------------------------------------------|
A-------------------------------------------------6---6-6-6--- x-x-x-x----5---5-5-5---x-x-x-x--|
E-----0----------3--2--0--2--0----------------6---6-6-6---x-x-x-x----5---5-5-5---x-x-x-x-------|

[ Tab from: http://www.guitartabs.cc/tabs/s/system_of_a_down/toxicity_tab_ver_25.html ]
E-----7----7----7----7----7----7----10---10---10---10----10---10---7----7-----7-8----8-7-7------|
B---5----5----5----5----5----5----8-----8-----8-----8-----8-----8-----5----5-----5------5----5--|
G-----------------------------------------------------------------------------------------------|
D-----------------------------------------------------------------------------------------------|
A-----------------------------------------------------------------------------------------------|
E-----------------------------------------------------------------------------------------------|

E--------10----12---12---10----10---8----8---|
B------8------8-----8-----------8---------8--|
G--------------------------------------------|
D--------------------------------------------|
A--------------------------------------------|
E--------------------------------------------|


CHORUS PART

E----------------------------------------------------------------------------------------------|
B----------------------------------------------------------------------------------------------|
G----------------------------------------------------------------------------------------------|
D----------------------------------------------------------------------------------------------|   x2
A-------------------------------------------------6---6-6-6--- x-x-x-x----5---5-5-5---x-x-x-x--|
E-----0----------3--2--0--2--0----------------6---6-6-6---x-x-x-x----5---5-5-5---x-x-x-x-------|

E-----------------------------------------------------------------|
B-----------------------------------------------------------------|
G-----------------------------------------------------------------|
D-----------------------------------------------------------------|
A-----------------------------------------------------------------|
E------3-2-0-2-0--x-x-x-x-x-x-----3-2-0-2-0---x-x-x-x-x-x---------|

E----------------------------------------------------------------------------------------------|
B----------------------------------------------------------------------------------------------|
G----------------------------------------------------------------------------------------------|
D----------------------------------------------------------------------------------------------|
A-------------------------------------------------6---6-6-6--- x-x-x-x----5---5-5-5---x-x-x-x--|
E-----0----------3--2--0--2--0----------------6---6-6-6---x-x-x-x----5---5-5-5---x-x-x-x-------|

E-----------------------------------------|
B-----------------------------------------|
G-----------------------------------------|
D-----------------------------------------|   X3
A-----12---12--12--12-----14--14--14--13--|
E-----12---12--12--12-----14--14--14--13--|


Work the rest out yourselvs if u can, if not check out anotha tab, good luck
--<*"Piqo"*>--
Comments