System Of A Down - Toxicity Chords & Tabs

 

Toxicity Chords & Tabs

System Of A Down Chords & Tabs

Version: 17 Type: Tab 0 ratings
1 star 2 stars 3 stars 4 stars 5 stars
comments

Toxicity Tab

   
  Song title : 12 - Toxicity
  Artist     : System of a down
  Album      : Toxicity
  Tabbed by  : Fernando Delgado
  E-mail     : elrockero56@aol.com
[ Tab from: http://www.guitartabs.cc/tabs/s/system_of_a_down/toxicity_tab_ver_17.html ]
 
 
 C Tuned
 *=pm
 v=hand vib
 
 
A (clean + slight mute)
|-------------------------------
|---10---10---10---10---10---10-
|-7----7----7----7----7----7----
|-------------------------------
|-------------------------------
|-------------------------------
 
|-------------------------------------
|----13----13----13----13----13----13-
|-10----10----10----10----10----10----
|-------------------------------------
|-------------------------------------
|-------------------------------------
 
|---------------------------------
|---10---10---10-11---11-10---10--
|-7----7----7-------7-------7-----
|---------------------------------
|---------------------------------
|---------------------------------
 
|------------------------------------|
|----13----15----15-13----13-11---11-|
|-10----10----10-------10-------10---|
|------------------------------------|
|------------------------------------|
|------------------------------------|
 
B
|-0---------------8-88888-88887-77777-7777-|
|-0---3-2-0-2-0---8-88888-88887-77777-7777-|
|-0---3-2-0-2-0---8-88888-88887-77777-7777-|
      * * * * * 
 
|-0---------------8-88888-88887-77777-7777-|
|-0---3-2-0-2-0---8-88888-88887-77777-7777-|
|-0---3-2-0-2-0---8-88888-88887-77777-7777-|
      * * * * * 
 
|-----------------------------8-88888-88887-77777-7777-|
|-----------------------------8-88888-88887-77777-7777-|
|-320202-320202-320202-320202-8-88888-88887-77777-7777-|
  ****** ****** ****** ****** 
 
|-0---------------8-88888-88887-77777-7777-|
|-0---3-2-0-2-0---8-88888-88887-77777-7777-|
|-0---3-2-0-2-0---8-88888-88887-77777-7777-|
      * * * * * 
 
Repeat A without mute 
 
A
|-------------------------------
|---10---10---10---10---10---10-
|-7----7----7----7----7----7----
|-------------------------------
|-------------------------------
|-------------------------------
 
|----------11-------12------11------
|----13-------13------13------13----
|-10----10-------10------10------10-
|-----------------------------------
|-----------------------------------
|-----------------------------------
 
|---------------------------------
|---10---10---10-11---11-10---10--
|-7----7----7-------7-------7-----
|---------------------------------
|---------------------------------
|---------------------------------
 
|------------------------------------|
|----13----15----15-13----13-11---11-|
|-10----10----10-------10-------10---|
|------------------------------------|
|------------------------------------|
|------------------------------------|
 
play it twice 
 
2nd  time a guit plays
 
rhythm A
|-------------------------------------------------|
|-------------------------------------------------| 2x
|-0-00-00-0-0-0-00-00-0-0-3-33-33-3-3-3-33-33-3-3-| 
  * ** ** * * * ** ** * * * ** ** * * * ** ** * * 
 
Repeat B
Repeat A
 
A
|--------------------------------
|---10---10---10-11---11-10---10-
|-7----7----7-------7-------7----
|--------------------------------
|--------------------------------
|--------------------------------
 
|----------11-------12------11------
|----13-------13------13------13----
|-10----10-------10------10------10-
|-----------------------------------
|-----------------------------------
|-----------------------------------
 
|---------------------------------
|---10---10---10-11---11-10---10--
|-7----7----7-------7-------7-----
|---------------------------------
|---------------------------------
|---------------------------------
 
|------------------------------------|
|----13----15----15-13----13-11---11-|
|-10----10----10-------10-------10---|
|------------------------------------|
|------------------------------------|
|------------------------------------| 
 
Play it twice with rhythm A
 
Repeat B
 
Breack
|-000000300-2v-|
|--------------| 4x
|--------------| 
  * *******
 
|-----------------------------|
|-----------------------------| 2x
|-320000-320000-320000-320000-| 
  ****** ****** ****** ****** 
 
|-0-------------|
|-0-------------| 4x 
|-0-0000-300-2v-|
  * **** *** 
 
|-----------------------------|
|-----------------------------| 2x
|-320000-320000-320000-320000-| 
  ****** ****** ****** ****** 
 
Repeat B
 
End
|-----------------------------|
|-----------------------------| 2x
|-320000-320000-320000-320000-| 
  ****** ****** ****** ****** 
 
|-0-0----------0-----------|
|-0-0----------0-----------| 
|-0-0-0-300-2v-0-000300-2v-|
  * * * ***    * ****** 
 
|-0-0----------0--------2--|
|-0-0----------0--------2--| 
|-0-0-0-300-2v-0-000300-2--|
  * * * ***    * ****** 
Comments