System Of A Down - Toxicity Chords & Tabs

 

Toxicity Chords & Tabs

System Of A Down Chords & Tabs

Version: 12 Type: Tab 0 ratings
1 star 2 stars 3 stars 4 stars 5 stars
comments

Toxicity Tab

   
-------------------------------------------------------------------------------
			     Toxicity - System of a Down
-------------------------------------------------------------------------------

By: JD

I'll try to be as specific as possible.. 

Your guitar should be in dropped-D tunning 
one whole step 
(low to high)
C
G
C
F
A
D

_______________________________________
INTRO-(0:00-0:49)

|----------------------|----------------------|---------------------------|
|----------------------|----------------------|---------------------------|
|-----14------14----14-|-----17------17----17-|----17------17----17-------|
|---12--12-------12----|--15----15------15----|-15----15------15----------|
|----------------------|----------------------|---------------------------|
|----------------------|----------------------|---------------------------|

|-------------------------|----------------------|-------------------------|---------------------|
|-------------------------|----------------------|-------------------------|---------------------|
|------14-------14----14--|--15----15---14----14-|--------17------19----19-|-17----17---15----15-|
|---12----12-------12-----|-----12---------12----|--12/15----15------15----|----15---------15----|
|-------------------------|----------------------|-------------------------|---------------------|
|-------------------------|----------------------|-------------------------|---------------------|

|-------|---------------|---------|--------------------------------------------|
|-------|---------------|---------|--------------------------------------------|
|-------|---------------|---------|--------------------------------------------|
|-------|---------------|-8-------|-7------------------------------------------|
|---0---|------------0--|-8-------|-7------------------------------------------|
|---0---|--3-2--0-2--0--|-8-------|-7------------------------------------------|

|------------------------------|---------|----------------------------------------|
|------------------------------|---------|----------------------------------------|
|------------------------------|---------|----------------------------------------|
|------------------------------|-8-------|-7--------------------------------------|
|------------------------------|-8-------|-7--------------------------------------|
|-3-2-0--2-0-0----3-2-0--2-0-0-|-8-------|-7--------------------------------------|


|----------------------|------------------------|-----------------------------|
|----------------------|---------------17-------|-18--------------------------|
|----12------14----14--|-------17---------17----|----17-----------------------|
|-14----14------12-----|-12/15----15---------15-|-------15--------------------|
|----------------------|------------------------|-----------------------------|
|----------------------|------------------------|-----------------------------|

VERSE-(0:49-1:13) 2x
Conversion software      version  seven point oh
|----------------------|------------------------|-----------------------------|
|----------------------|---------------17-------|-18--------------------------|
|----12------14----14--|-------17---------17----|----17-----------------------|
|-14----14------12-----|-12/15----15---------15-|-------15--------------------|
|----------------------|------------------------|-----------------------------|
|----------------------|------------------------|-----------------------------|

|----------------------|---------------------|---------------------|---------------------|
|----------------------|---------------------|---------------------|---------------------|
|----14------14----14--|-15----15---14----14-|----17------19----19-|-17----17---15----15-|
|-12----12------12-----|----12---------12----|-15----15------15----|----15---------15----|
|----------------------|---------------------|---------------------|---------------------|
|----------------------|---------------------|---------------------|---------------------|

[ Tab from: http://www.guitartabs.cc/tabs/s/system_of_a_down/toxicity_tab_ver_12.html ]
 CHORUS-(1:13-1:37)  Now  what do you own the world...  Disorder...Disorder           
|----|--------------------------------------------------|----------|-----|   
|----|--------------------------------------------------|----------|-----|
|----|--------------------------------------------------|----------|-----|
|----|--------------------------------------------------|-8--------|-7---|
|-0--|---------0----------------------------------------|-8--------|-7---|
|-0--|-3-2-0-2-0----------------------------------------|-8--------|-7---|


 Now  somewhere between the sacred....    Sacred  silence and sleep   
|----|----------------------------------|----------|-----|   
|----|----------------------------------|----------|-----|
|----|----------------------------------|----------|-----|
|----|----------------------------------|-8--------|-7---|
|-0--|---------0------------------------|-8--------|-7---|
|-0--|-3-2-0-2-0------------------------|-8--------|-7---|


Somewhere _ _ _ _ _ _ _ _ _ _ Between the   sacred silence and sleep
|------------------------------|----------------------|--------------------|
|------------------------------|----------------------|--------------------|
|------------------------------|----------------------|--------------------|
|------------------------------|--8-------------------|--7-----------------|
|------------------------------|--8-------------------|--7-----------------|
|-3-2-0--2-0-0--3-2-0--2-0-0---|--8-------------------|--7-----------------|

                 Disorder                Disorder
|---------------------|----------------------|----------|----------------------------|
|---------------------|----------------------|----------|----------------------------|
|---------------------|----------------------|----------|----------------------------|
|---------------------|----------------------|--8-------|-7--------------------------|
|-0-------------------|----------------------|--8-------|-7--------------------------|
|-0-------------------|--3-2-0-2-0-----------|--8-------|-7--------------------------|

That was the end of the chorus (1:37)... now repeat again from 0:49 to 1:37  
(only lyrics change during the second time)


After you're done with the second verse and chorus
you beging the Interlude which starts at 2:41 (play this really fast)
|------------------------------|
|------------------------------|
|------------------------------|  4x
|------------------------------|
|------------------------------|
|-12-12--12-12-12--15-12-12-14-|


  (4x between 2:45-2:50)  (4x between 2:50-2:56)   (4x between 2:56-3:02
|----------------------------|----------------------|------------------------------|
|----------------------------|----------------------|------------------------------|
|----------------------------|----------------------|------------------------------|
|----------------------------|----------------------|------------------------------|
|----------------------------|----------------------|------------------------------|
|-3-2-0--0-0-0--3-2-0--0-0-0-|-0-0--0-0-0--3-2-0--2-|-3-2-0--0-0-0--3-2-0--0-0-0---|

After that you repeat the chorus again (from 1:13 to 1:37)

Then you start the outro at 3:27 (right during the last word of the chorus -"disorder")

Disor..................................................................der
|----------------------------|
|----------------------------|
|----------------------------|
|----------------------------|4x
|----------------------------|
|-3-2-0--0-0-0--3-2-0--0-0-0-|




When i became the sun   i shone life into............
|-------------------|----------------------|-------------------|----------------------|
|-------------------|----------------------|-------------------|----------------------|
|-------------------|----------------------|-------------------|----------------------|
|-------------------|----------------------|-------------------|----------------------|
|-------------------|----------------------|-------------------|----------------------|
|-0---0-0--3-2-0--2-|-0-0--0-0-0--3-2-0--2-|-0---0-0--3-2-0--2-|-0-0--0-0-0--3-2-0--2-|
Comments