System Of A Down - This Cocaine Makes Me Feel Like Im On This Song Chords & Tabs

 

This Cocaine Makes Me Feel Like Im On This Song Chords & Tabs

System Of A Down Chords & Tabs

Version: 1 Type: Bass Tab 0 ratings
1 star 2 stars 3 stars 4 stars 5 stars
comments

This Cocaine Makes Me Feel Like Im On This Song Bass Tab

   
-------------------------------------------------------------------------------
System Of A Down - This Cocaine Makes Me Feel Like I'm On This Song
-------------------------------------------------------------------------------

Tabbed By : SeepZ		
e-mail: hypercobra69@hotmail.com

This tab is pretty much 100% I might be wrong, but I'm sure the bass doesn't change
during that high freaky bit about gonorrhea and shit. Keep it real!

Tuning: Standard (EADG)

G|---------------------------------------------------------------------------|
D|---------------------------------------------------------------------------|
A|---------------------------------------------------------------------------|
E|-3-3x----1-4-33x----1-3-44x----6-4-33x----1-4-33x--------------------------|

G|---------------------------------------------------------------------------|
D|---------------------------------------------------------------------------|
A|---------------------------------------------------------------------------|
E|-1-4-33x----1-3-44x----6-4-33x----1-4-33x----1-4-33x----1-3-44x----6-4-33x-|

G|---------------------------------------------------------------------------|
D|---------------------------------------------------------------------------|
A|---------------------------------------------------------------------------|
E|-1-3-7-67676-7-67676-7-67676-7-67676-7-67676-7-67676-7-67676-7-67676-------|

G|---------------------------------------------------------------------------|
D|---------------------------------------------------------------------------|
A|---------------------------------------------------------------------------|
E|\3x----------------4x4x-4444-33333333333333333333333333333333-4x4x-4444----|

G|---------------------------------------------------------------------------|
D|---------------------------------------------------------------------------|
A|---------------------------------------------------------------------------|
E|-7-67676-7-67676-7-67676-7-67676-7-67676-7-67676-7-67676-7-67676-----------|
[ Tab from: http://www.guitartabs.cc/tabs/s/system_of_a_down/this_cocaine_makes_me_feel_like_im_on_this_song_btab.html ]
G|---------------------------------------------------------------------------|
D|---------------------------------------------------------------------------|
A|---------------------------------------------------------------------------|
E|-33x----1-4-33x----1-3-44x----6-4-33x----1-4-33x----1-4-33x----------------|

G|---------------------------------------------------------------------------|
D|---------------------------------------------------------------------------|
A|---------------------------------------------------------------------------|
E|-1-3-44x----6-4-33x-------------------------------------------------------|

G|---------------------------------------------------------------------------|
D|---------------------------------------------------------------------------|
A|---------------------------------------------------------------------------|
E|-1-3-7-67676-7-67676-7-67676-7-67676-7-67676-7-67676-7-67676-7-67676-------|

G|---------------------------------------------------------------------------|
D|---------------------------------------------------------------------------|
A|---------------------------------------------------------------------------|
E|\3x----------------4x4x-4444-33333333333333333333333333333333-4x4x-4444----|

G|---------------------------------------------------------------------------|
D|---------------------------------------------------------------------------|
A|---------------------------------------------------------------------------|
E|-7-67676-7-67676-7-67676-7-67676-7-67676-7-67676-7-67676-7-67676-----------|

G|---------------------------------------------------------------------------|
D|---------------------------------------------------------------------------|
A|---------------------------------------------------------------------------|
E|-33x----1-4-33x----1-3-44x----6-4-33x----1-4-33x----1-4-33x----------------|

G|---------------------------------------------------------------------------|
D|---------------------------------------------------------------------------|
A|---------------------------------------------------------------------------|
E|-1-3-44x----6-4-33x----1-4-3x----------------------------------------------|


| /  slide up
| \  slide down
| h  hammer-on
| p  pull-off
| ~  vibrato
| +  harmonic
| x  Mute note
===============================================================================
Comments