System Of A Down - Thetawaves Chords & Tabs

 

Thetawaves Chords & Tabs

System Of A Down Chords & Tabs

Version: 2 Type: Tab 0 ratings
1 star 2 stars 3 stars 4 stars 5 stars
comments

Thetawaves Tab

   
Band:System Of A Down
Song:Thetawaves
Tabber:Glenn
Tuning:CGCFAD
h=hammer-on
s=slide-on
...=palm-mute
***=harmonic
xxx=dead-note

intro
pm...............................................................
-----------------------------------------------------------------
-----------------------------------------------------------------
---------------------------------7-7-7-7-7-7-7-7-----------------
---------------------------------7-7-7-7-7-7-7-7-----------------
-4h5-4h5-4h5-4h5-4h5-4h5-4h5-4h5-5-5-5-5-5-5-5-5-5-5-5-5-5-5-5-5-
-------------------------------------------------5-5-5-5-5-5-5-5-

pm......     .......     ................................
---------------------------------------------------------
---------------------------------------------------------
---------6-6---------6-6-7-7-7-7-7-7-7-7-----------------
-------------------------7-7-7-7-7-7-7-7-----------------
-4h5-4h5-----4h5-4h5-----5-5-5-5-5-5-5-5-5-5-5-5-5-5-5-5-
-----------------------------------------5-5-5-5-5-5-5-5-
         * *         * *

verse
pm..................................     ...
-------------------------------------------------
-------------------------------------7-7-----7-7-
-------------------------------------------------
-------------------------------------------------
-5-5-5-5-5h7-5-5-5-5-5-5-5h7-5-5-4-4-----4-4-----
-5-5-5-5-5h7-5-5-5-5-5-5-5h7-5-5-4-4-----4-4-----
                                     * *     * *

pm................................   .   .   .
-------------------------------------------------
-----------------------------------7---7---7---7-
-------------------------------------------------
-------------------------------------------------
-5-5-5-5-5h7-5-5-5-5-5-5-5h7-5-5-4---4---4---4---
-5-5-5-5-5h7-5-5-5-5-5-5-5h7-5-5-4---4---4---4---
                                   *   *   *   *
[ Tab from: http://www.guitartabs.cc/tabs/s/system_of_a_down/thetawaves_tab_ver_2.html ]
chorus
pm   .......     .......
-------------------------------------
-------------------------------------
-----7-7-7-7-----7-7-7-7-------------
-----7-7-7-7-----7-7-7-7-------------
-5-5-5-5-5-5-5-5-5-5-5-5-4-4-4-4-4-4-
-5-5---------5-5---------4-4-4-4-4-4-

pm   .......     .......
-------------------------------------------------------------------------------
-------------------------------------------------------------------------------
-----7-7-7-7-----7-7-7-7-------------------------------------------------------
-----7-7-7-7-----7-7-7-7-------------------------------------------------------
-5-5-5-5-5-5-5-5-5-5-5-5-4-5-4-5s7-5-4-4-5-0-2-4-5-4-5-4-5s7-5-4-2-4-2-4s5-4-2-
-5-5---------5-5---------4-5-4-5s7-5-4-4-5---------4-5-4-5s7-5-4---------------

solo
-7-7-7-7-7-7-7-7-9-9-9-9-10-10-10-10-9-9-9-9-9-9-9-9-3-3-3-3-2-2-2-2-
---------------------------------------------------------------------
---------------------------------------------------------------------
---------------------------------------------------------------------
---------------------------------------------------------------------
---------------------------------------------------------------------

-7-7-7-7-7-7-7-7-9-9-9-9-10-10-10-10-9-9-9-9-9-9-9-9-14-14-14-14-14-14-14-14-
-----------------------------------------------------------------------------
-----------------------------------------------------------------------------
-----------------------------------------------------------------------------
-----------------------------------------------------------------------------
-----------------------------------------------------------------------------

-15--14-12-14--12-10-12--10-9-10--9--12--10-9-10--9-7-6-7-9--9--9-x-x-7--7--7--7--6--6--6--6-
---------------------------------------------------------------------------------------------
---------------------------------------------------------------------------------------------
---------------------------------------------------------------------------------------------
---------------------------------------------------------------------------------------------
---------------------------------------------------------------------------------------------
Comments