System Of A Down - Tentative Chords & Tabs

 

Tentative Chords & Tabs

System Of A Down Chords & Tabs

Version: 2 Type: Tab

Tentative Tab

WOW!!! SUCH A GREAT SONG!!! It works for me, it may work for you too.

INTRO
-3-3-----------------3-3-3-|
-3-3-----------------3-3-3-|
---------------------------|
---------------------------| x 2.
---------------------------|
-----0-0-0-0-0-0-0-0-------|

VERSE 1
-3-3-----------------3-3-3-|
-3-3-----------------3-3-3-|
---------------------------|
---------------------------|
---------------------------|
-----0-0-0-0-0-0-0-0-------|

PRE CHORUS
-----------------------------------------------------------------------|
-----------------------------------------------------------------------|
-------------------------------------------10-10---10-10-10-10-10-(x2)-|
-0-0---0-0-0-0-0-(x2)-7-7---7-7-7-7-7-(x2)-10-10---10-10-10-10-10------|
-0-0---0-0-0-0-0------7-7---7-7-7-7-7------8--8----8--8--8--8--8-------|
-0-0---0-0-0-0-0------7-7---7-7-7-7-7----------------------------------|
[ Tab from: http://www.guitartabs.cc/tabs/s/system_of_a_down/tentative_tab_ver_2.html ]
----------------------|
----------------------|
----------------------|
-7-7---7-7-7-7-7-(x2)-|
-7-7---7-7-7-7-7------|
-7-7---7-7-7-7-7------|

CHORUS
--------------------------------------------|
--------------------------------------------|
------------------------------10------5-----|
-0-----0--8------8--7------7--10------5-----| x2
-0-----0--8------8--7------7--8-------3-----|
-0-----0--8------8--7------7----------------|

BRIDGE
------------------------------------------------|
-5---5-----5--6---5--5---5--6---5--5---5----5---|
--5---5-----5--5-5-5------5--5-5-5----5-5--5-5--|
-------------7--7---7------7--7---7------5----5-|
-------------------------------------8----7-----|
--------8-8-----------7-7-----------------------|

ORDER
INTRO
VERSE x 6
PRE CHORUS
CHORUS
VERSE
PRE CHORUS
CHORUS
BRIDGE x 4
VERSE (carry on the last 3 bit on Eb and Bb strings 6 times)
CHORUS (and no I didnt miss pre chorus)(play the last 3 notes of the chorus again after 
them once)
BRIDGE x 1

Theres the tab! Any corrections send them to coolandcrazy@hotmail.com.